Showoff - Spill Chords & Tabs

 

Spill Chords & Tabs

Showoff Chords & Tabs

Version: 2 Type: Tab 0 ratings
1 star 2 stars 3 stars 4 stars 5 stars
comments

Spill Tab

-----------------------------------------------------------------------------
			     SPILL - Showoff
-----------------------------------------------------------------------------
Tabbed by: Jennifer
Email: sonic_speed_@hotmail.com

Tuning: Standard



Intro/Verse 1: x6

Guitar 1
e---------------------------------|
B---------------------------------|
G-5-5-------------2-2-------------|
D-5-5-----3-3-----2-2-----3-3-----|
A-3-3-----3-3-----0-0-----3-3-----|
E---------1-1-------------1-1-----|

Chorus:
e--------------------------------------------------|
B--------------------------------------------------|
G-5-5-5-5-5-5-------------2-2-2-2-2-2--------------|
D-5-5-5-5-5-5-3-3-3-3-3-3-2-2-2-2-2-2-3-3-3-3-3-3--|
A-3-3-3-3-3-3-3-3-3-3-3-3-0-0-0-0-0-0-3-3-3-3-3-3--|
E-------------1-1-1-1-1-1-------------1-1-1-1-1-1--|

e--------------------------------------------------|
B--------------------------------------------------|
G-5-5-5-5-5-5-------------2-2-2-2-2-2--------------|
D-5-5-5-5-5-5-3-3-3-3-3-3-2-2-2-2-2-2-3-3-3-3-3-3--|
A-3-3-3-3-3-3-3-3-3-3-3-3-0-0-0-0-0-0-3-3-3-3-3-3--|
E-------------1-1-1-1-1-1-------------1-1-1-1-1-1--|

e-------------------------------------------------------------------------|
B-------------------------------------------------------------------------|
G-5~--4--4-------------5~--4--4--------------5~--4~--2~------5-5-5-5-5-5--|
D-5~--4--4-5-5-5-5-5-5-5~--4--4-5-5-5-5-5-5--5~--4~--2~--5~--5-5-5-5-5-5--|
A-3~--2--2-5-5-5-5-5-5-3~--2--2-5-5-5-5-5-5--3~--2~--0~--5~--3-3-3-3-3-3--|
E----------3-3-3-3-3-3----------3-3-3-3-3-3--------------3~---------------|


Pre-Verse: x2

Guitar 1
e---------------------------------|
B---------------------------------|
G-5-5-------------2-2-------------|
D-5-5-----3-3-----2-2-----3-3-----|
A-3-3-----3-3-----0-0-----3-3-----|
E---------1-1-------------1-1-----|

Guitar 2
e-----------------------------------------------------|
B-----------------------------------------------------|
G-9--9-9999-/10--10-10|10|10|10\9--9-9999-/5--5-5555--|
D-----------------------------------------------------|
A-----------------------------------------------------|
E-----------------------------------------------------|

Verse 2: x4
[ Tab from: http://www.guitartabs.cc/tabs/s/showoff/spill_tab_ver_2.html ]
Guitar 1
e----------------------------------|
B----------------------------------|
G-5xx-5xxxx-------2xx-2xxxx--------|
D-5xx-5xxxx-3-3xx-2xx-2xxxx-3-3xx--|
A-3xx-3xxxx-3-3xx-0xx-0xxxx-3-3xx--|
E-----------1-1xx-----------1-1xx--|

Guitar 2  (Lightly)
e-----------------------------------------------------|
B-----------------------------------------------------|
G-9--9-9999-/10--10-10|10|10|10\9--9-9999-/5--5-5555--|
D-----------------------------------------------------|
A-----------------------------------------------------|
E-----------------------------------------------------|

Chorus:

Guitar 1
e--------------------------------------------------|
B--------------------------------------------------|
G-5-5-5-5-5-5-------------2-2-2-2-2-2--------------|
D-5-5-5-5-5-5-3-3-3-3-3-3-2-2-2-2-2-2-3-3-3-3-3-3--|
A-3-3-3-3-3-3-3-3-3-3-3-3-0-0-0-0-0-0-3-3-3-3-3-3--|
E-------------1-1-1-1-1-1-------------1-1-1-1-1-1--|

e--------------------------------------------------|
B--------------------------------------------------|
G-5-5-5-5-5-5-------------2-2-2-2-2-2--------------|
D-5-5-5-5-5-5-3-3-3-3-3-3-2-2-2-2-2-2-3-3-3-3-3-3--|
A-3-3-3-3-3-3-3-3-3-3-3-3-0-0-0-0-0-0-3-3-3-3-3-3--|
E-------------1-1-1-1-1-1-------------1-1-1-1-1-1--|

e-------------------------------------------------------------------------|
B-------------------------------------------------------------------------|
G-5~--4--4-------------5~--4--4--------------5~--4~--2~------5-5-5-5-5-5--|
D-5~--4--4-5-5-5-5-5-5-5~--4--4-5-5-5-5-5-5--5~--4~--2~--5~--5-5-5-5-5-5--|
A-3~--2--2-5-5-5-5-5-5-3~--2--2-5-5-5-5-5-5--3~--2~--0~--5~--3-3-3-3-3-3--|
E----------3-3-3-3-3-3----------3-3-3-3-3-3--------------3~---------------|


Ending:
Guitar 1
e----------------------------------|
B----------------------------------|
G-5-5xxxx---------2-2xxxx----------|
D-5-5xxxx-3-3xxxx-2-2xxxx-3-3xxxx--|
A-3-3xxxx-3-3xxxx-0-0xxxx-3-3xxxx--|
E---------1-1xxxx---------1-1xxxx--|

Guitar 2
e-----------------------------------|
B-----------------------------------|
G-9--9----10--10--9--9----5--5------|
D-----------------------------------|
A-----------------------------------|
E-----------------------------------|

Fill:

Guitar 1
e-------|
B-------|
G-5--5--|
D-5--5--|
A-3--3--|
E-------|

Guitar 2
e-------|
B-------|
G-9--9--|
D-------|
A-------|
E-------|


| /  Slide Up
| \  Slide Down
| ~  vibrato
| x  Mute note
=============================================================================
Comments