Showoff - Spill Chords & Tabs

 

Spill Chords & Tabs

Showoff Chords & Tabs

Version: 1 Type: Tab 0 ratings
1 star 2 stars 3 stars 4 stars 5 stars
comments

Spill Tab

   
Showoff
"Spill"
Tabbed by: Jim Warren

GUITAR 2
INTRO/VERSE 1

E----------------
B----------------
G-55-------------    REPEAT A LOT
D-55--33--77--33-
A-33--33--77--33-
E-----11--55--11-


CHORUS 1a
"I don't care if you need me..."
E---------------------
B---------------------
G-5555----------------
D-5555-3333-7777-3333-
A-3333-3333-7777-3333-
E------1111-5555-1111-


CHORUS 1b
"Honey, I know it all..."
E------------
B------------
G-55-44------     REPEAT A FEW TIMES
D-55-44-5555-
A-33-22-5555-
E-------3333-

[ Tab from: http://www.guitartabs.cc/tabs/s/showoff/spill_tab.html ]
CHORUS 1c
"But, Honey, I won't take the spill."
E----------------
B----------------
G-55-44-------55-
D-55-44-77-55-55-
A-33-22-77-55-33-
E-------55-33----

BACK TO VERSE

VERSE 2
E-----------------------------------
B-----------------------------------
G-XX-5-XX-5-XXX---------------------     REPEAT A FEW
D-XX-5-XX-5-XXX-33-XX-7-XX-7-XXX-33-
A-XX-3-XX-3-XXX-33-XX-7-XX-7-XXX-33-
E---------------11-XX-5-XX-5-XXX-11-

REPEAT ALL OF CHORUS

OUTRO (I'm not sure about this)
E---------------------------------
B---------------------------------
G-55-XXXX-77-XXXX-55-XXXX---------     REPEAT
D-55-XXXX-77-XXXX-55-XXXX-33-XXXX-
A-33-XXXX-55-XXXX-33-XXXX-33-XXXX-
E-------------------------11-XXXX-
Comments