Showoff - Falling Star Chords & Tabs

 

Falling Star Chords & Tabs

Showoff Chords & Tabs

Version: 2 Type: Tab 0 ratings
1 star 2 stars 3 stars 4 stars 5 stars
comments

Falling Star Tab

   
Song: Falling Star
Artist: Showoff
Album: Showoff

INTRO

Guiar 1
E|-----------------------------------------------|
B|-----------------------------------------------|
G|77777777---------------------------------------|
D|77777777-77777777-99999999-44444444-55555555-7-|
A|55555555-77777777-99999999-44444444-55555555-5-|
E|---------55555555-77777777-22222222-33333333-5-|


Guitar 2

E|------------------------------------|
B|-------5-7--5-----8-7-5-------------|
G|-7---7--------7---------7------4----|
D|---7------------7---------7-5----5--|
A|------------------------------------|
E|------------------------------------|


This part is right after the intro, and right before the verse...

E|--------------------------------------------------------|
B|--------------------------------------------------------|
G|-7-7-7-7-9-11--7-7-7-7-9-11--7-7-7-7-9-11--12-11--------|
D|-------------------------------------------------12-9-7-|
A|-5-5-5-5-7--9--5-5-5-5-7--9--5-5-5-5-7--9--10--9--------|
E|-------------------------------------------------10-7-7-|

VERSE 1- there isnt any guitar during the verse

CHORUS- the chorus has the same chords as the intro, just palm muted

VERSE 2- the first 2 measures do not have any guitar, the rest is as shown...

          2x
E|---------------------|
B|---------------------|
G|-7777----------------|
D|-7777-7777-9999-5555-|
A|-5555-7777-9999-5555-|
E|------5555-7777-3333-|

[ Tab from: http://www.guitartabs.cc/tabs/s/showoff/falling_star_tab_ver_2.html ]
after that play the chorus then play this

guitar 1
          8x
E|---------------------|
B|---------------------|
G|-7777----------------|
D|-7777-7777-9999-5555-|
A|-5555-7777-9999-5555-|
E|------5555-7777-3333-|


guitar 2

E|--------------------------------------------------------|
B|--------------------------------------------------------|
G|-7-7-7-7-9-11--7-7-7-7-9-11--7-7-7-7-9-11--12-11--------|
D|-------------------------------------------------12-9-7-|
A|-5-5-5-5-7--9--5-5-5-5-7--9--5-5-5-5-7--9--10--9--------|
E|-------------------------------------------------10-7-7-|

E|------------------------------/12----14----12-17-|
B|----------------------------------15----15-------|
G|-------------------------------------------------|
D|-12-12-99-7777-12-12-99-7777---------------------|
A|-------------------------------------------------|
E|-10-10-77-5555-10-10-77-5555---------------------|


Right after the last chorus where it says "well all that we talk about now is" just play D and A over and 
in powerchord style

OUTRO

guitar 1 plays a D chord and guitar two plays...

E|--------------------------------------------------------|
B|--------------------------------------------------------|
G|-7-7-7-7-9-11--7-7-7-7-9-11--7-7-7-7-9-11--12-11--------|
D|-------------------------------------------------12-9-7-|
A|-5-5-5-5-7--9--5-5-5-5-7--9--5-5-5-5-7--9--10--9--------|
E|-------------------------------------------------10-7-7-|
Comments