Shout Out Louds - Wish I Was Dead Chords & Tabs

 

Wish I Was Dead Chords & Tabs

Shout Out Louds Chords & Tabs

Version: 1 Type: Tab 0 ratings
1 star 2 stars 3 stars 4 stars 5 stars
comments

Wish I Was Dead Tab

   
---------------------------------------------------------------------------
		    Wish I Was Dead - Shout Out Louds
---------------------------------------------------------------------------
Tabbed by: Matty C
Email: Happyquakiduck@msn.com

Tuning: Standard EADGBE

*****Guitar 1*****

Verse
e|--7~----7----------------------------------------------------------------|
B|--9~--9-9-9-7-5-2-0------------------------------------------------------|
G|--9~--9---9-6-6-4-2------------------------------------------------------|
D|-------------------------------------------------------------------------|
A|-------------------------------------------------------------------------|
E|-------------------------------------------------------------------------|

Chorus 
    B    C#   D#   E    F#     G#       A        B
e|-------------------------------------------------------------------------|
B|-------------------------------------------------------------------------|
G|-4444/6666/8888/9999/1111/13131313/14141414/16161616\--------------------|
D|-xxxx/xxxx/xxxx/xxxx/xxxx/xxxxxxxx/xxxxxxxx/xxxxxxxx\--Repeat------------|
A|-2222/4444/6666/7777/9999/11111111/12121212/14141414\--------------------|
E|-------------------------------------------------------------------------|

[ Tab from: http://www.guitartabs.cc/tabs/s/shout_out_louds/wish_i_was_dead_tab.html ]
Solo 
e|-------------------------------------------------------------------------|
B|-7h9p7-7p5\2-------------------------------------------------------------|
G|-------------4~-444\2-2--------------------------------------------------|
D|-------------------------------------------------------------------------|
A|----------------------0--------------------------------------------------|
E|-------------------------------------------------------------------------|

e|-------------------------------------------------------------------------|
B|-7-9-79-10p9-7-9-55-7-5-22--9999^10-7-5-7-5-22/--9999^10-7-5-7-5-22-0----|
G|-------------------------------------------------------------------------|
D|-------------------------------------------------------------------------|
A|-------------------------------------------------------------------------|
E|-------------------------------------------------------------------------|


*****Guitar 2*****

Intro/Verse
    E    A    E    A
e|--7~---5~---7~---5~------------------------------------------------------|
B|--9~---5~---9~---5~------------------------------------------------------|
G|--9~---6~---9~---6~------------------------------------------------------|
D|--9~---7~---9~---7~------------------------------------------------------|
A|--7~---7~---7~---7~------------------------------------------------------|
E|-------5~--------5~------------------------------------------------------|

Chorus
          B                   A                 E
e|--7777777777777777---5555555555555555---------7--------------------------|
B|--7777777777777777---5555555555555555---------9--------------------------|
G|--8888888888888888---6666666666666666-X4-Then-9--------------------------|
D|--9999999999999999---7777777777777777---------9--------------------------|
A|--9999999999999999---7777777777777777---------7--------------------------|
E|--7777777777777777---5555555555555555------------------------------------|

Both guitars end on E

Great song, the chorus always gets stuck in my head =)

I'm also dedicating this tab to my shhhweetie Sarbear =) Hehe

Questions, comments, compliments, corrections go to Happyquakiduck@msn.com

Matty C <3
Comments