Shout Out Louds - My Friend And The Ink Chords & Tabs

 

My Friend And The Ink Chords & Tabs

Shout Out Louds Chords & Tabs

Version: 1 Type: Tab 0 ratings
1 star 2 stars 3 stars 4 stars 5 stars
comments

My Friend And The Ink Tab

-------------------------------------------------------------------------------
	          My Friend and the Ink- Shout Out Louds
-------------------------------------------------------------------------------
Tabbed by:
Email:

Tuning:

e|---------------------------------------------------------------------------|
B|---------------------------------------------------------------------------|
G|---------------------------------------------------------------------------|
D|--------2-------2-s-5--2-0---------------2-------2-s-5--2-0----------------|
A|--0-2-3---3-----------------3------0-2-3---3----------------3--------------|
E|---------------------------------------------------------------------------|

e|---------------------------------------------------------------------------|
B|---------------------------------------------------------------------------|
G|---------------------------------------------------------------------------|
D|--------2-------2-s-5--2-0-------------2-----------------------------------|
A|--0-2-3---3----------------3-----0-2-3---10-10-10-10-10-s-7-7--------------|
E|---------------------------------------------------------------------------|

e|---------------------------------------------------------------------------|
B|---------------------------------------------------------------------------|
G|---------------------------------------------------------------------------|
D|---------------------------------------------------------------------------|
A|--10-10-10-10-10-s-3-3-10-10-10-10-10-s-7-7-5-s-7-7-8-s-3-3----------------|
E|---------------------------------------------------------------------------|

e|---------------------------------------------------------------------------|
B|---------------------------------------------------------------------------|
G|---------------------------------------------------------------------------|
D|---------------------------------------------------------------------------|
A|--10-10-10-10-10-s-7-7-10-10-10-10-10-s-3-3--------------------------------|
E|---------------------------------------------------------------------------|

e|---------------------------------------------------------------------------|
B|---------------------------------------------------------------------------|
G|---------------------------------------------------------------------------|
D|---------------------------------------------------------------------------|
A|--10-10-10-10-10-s-7-7-5-s-7-7-8-s-3-3-3-----------------------------------|
E|---------------------------------------------------------------------------|




e|---------------------------------------------------------------------------|
B|---------------------------------------------------------------------------|
G|---------------------------------------------------------------------------|
D|--------2-------2-s-5--2-0---------------2-------2-s-5--2-0----------------|
A|--0-2-3---3-----------------3------0-2-3---3----------------3--------------|
E|---------------------------------------------------------------------------|

e|---------------------------------------------------------------------------|
B|---------------------------------------------------------------------------|
G|---------------------------------------------------------------------------|
D|--------2------------------------------------------------------------------|
A|--0-2-3---10-10-10-10-10-s-7-7---------------------------------------------|
E|---------------------------------------------------------------------------|

e|---------------------------------------------------------------------------|
B|---------------------------------------------------------------------------|
G|---------------------------------------------------------------------------|
D|---------------------------------------------------------------------------|
A|--10-10-10-10-10-s-3-3-10-10-10-10-10-s-7-7-5-s-7-7-8-s-3-3----------------|
E|---------------------------------------------------------------------------|

e|---------------------------------------------------------------------------|
B|---------------------------------------------------------------------------|
G|---------------------------------------------------------------------------|
D|---------------------------------------------------------------------------|
A|--10-10-10-10-10-s-7-7-10-10-10-10-10-s-3-3--------------------------------|
E|---------------------------------------------------------------------------|

e|---------------------------------------------------------------------------|
B|---------------------------------------------------------------------------|
G|---------------------------------------------------------------------------|
D|---------------------------------------------------------------------------|
A|--10-10-10-10-10-s-7-7-5-s-7-7-8-s-3-3-10-10-10-10-10-s-7-7----------------|
E|---------------------------------------------------------------------------|
[ Tab from: http://www.guitartabs.cc/tabs/s/shout_out_louds/my_friend_and_the_ink_tab.html ]
e|---------------------------------------------------------------------------|
B|---------------------------------------------------------------------------|
G|---------------------------------------------------------------------------|
D|---------------------------------------------------------------------------|
A|--10-10-10-10-10-s-3-3-10-10-10-10-10-s-7-7-5-s-7-7-8-s-3-3----------------|
E|--------------------------------------------------------------------------
-|

e|---------------------------------------------------------------------------|
B|---------------------------------------------------------------------------|
G|---------------------------------------------------------------------------|
D|---------------------------------------------------------------------------|
A|--10-10-10-10-10-10-10-10-10-10-10-10-s-7-7--------------------------------|
E|---------------------------------------------------------------------------|

e|---------------------------------------------------------------------------|
B|---------------------------------------------------------------------------|
G|---------------------------------------------------------------------------|
D|---------------------------------------------------------------------------|
A|--10-10-10-10-10-10-10-10-10-10-10-10-s-3-3--------------------------------|
E|---------------------------------------------------------------------------|

e|---------------------------------------------------------------------------|
B|---------------------------------------------------------------------------|
G|---------------------------------------------------------------------------|
D|---------------------------------------------------------------------------|
A|--10-10-10-10-10-10-10-10-10-10-10-10-s-7-7-------------------------------|
E|---------------------------------------------------------------------------|

e|---------------------------------------------------------------------------|
B|---------------------------------------------------------------------------|
G|---------------------------------------------------------------------------|
D|---------------------------------------------------------------------------|
A|--10-10-10-10-10-10-10-10-10-10-10-10-s-3-3-3------------------------------|
E|---------------------------------------------------------------------------|

e|---------------------------------------------------------------------------|
B|---------------------------------------------------------------------------|
G|---------------------------------------------------------------------------|
D|--------2-------2-s-5--2-0---------------2-------2-s-5--2-0----------------|
A|--0-2-3---3-----------------3------0-2-3---3----------------3--------------|
E|---------------------------------------------------------------------------|

e|---------------------------------------------------------------------------|
B|---------------------------------------------------------------------------|
G|---------------------------------------------------------------------------|
D|--------2------------------------------------------------------------------|
A|--0-2-3---10-10-10-10-10-s-7-7-10-10-10-10-10-s-3-3-----------------------|
E|---------------------------------------------------------------------------|

e|---------------------------------------------------------------------------|
B|---------------------------------------------------------------------------|
G|---------------------------------------------------------------------------|
D|---------------------------------------------------------------------------|
A|--10-10-10-10-10-s-7-7-5-s-7-7-8-s-3-3-10-10-10-10-10-s-7-7----------------|
E|---------------------------------------------------------------------------|

e|---------------------------------------------------------------------------|
B|---------------------------------------------------------------------------|
G|---------------------------------------------------------------------------|
D|---------------------------------------------------------------------------|
A|--10-10-10-10-10-s-3-3-10-10-10-10-10-s-7-7-5-s-7-7-8-s-3-3----------------|
E|--------------------------------------------------------------------------
-|

e|---------------------------------------------------------------------------|
B|---------------------------------------------------------------------------|
G|---------------------------------------------------------------------------|
D|---------------------------------------------------------------------------|
A|--10-10-10-10-10-s-7-7-10-10-10-10-10-s-3-3--------------------------------|
E|---------------------------------------------------------------------------|

e|---------------------------------------------------------------------------|
B|---------------------------------------------------------------------------|
G|---------------------------------------------------------------------------|
D|---------------------------------------------------------------------------|
A|--10-10-10-10-10-s-7-7-5-s-7-7-8-s-3-3-3-----------------------------------|
E|---------------------------------------------------------------------------|






-|s-slide
===============================================================================
Comments