Shotgun Frontseat - Free My Inner Space Chords & Tabs

 

Free My Inner Space Chords & Tabs

Shotgun Frontseat Chords & Tabs

Version: 1 Type: Tab 0 ratings
1 star 2 stars 3 stars 4 stars 5 stars
comments

Free My Inner Space Tab

   
----------------------------------------------------------------------------
		   FREE MY INNER SPACE - Shotgun Frontseat
----------------------------------------------------------------------------
Tabbed by: Mark Oliver
Email: rooneyrules@msn.com
Notes: Shotgun Frontseat are a band from Hampshire, England. Check out the
       website www.shotgunfrontseat.co.uk for a free download of Free My
       Inner Space and info on how to get hold of their CD
Tuning: no special tuning



	RIFF 1:
e|---------------0---------------0----------------0---------------0---|
B|--0-------------0-0-------------0-0--------------0-0-------------0--|
G|------6----------6----6----------6----5-----------6----6------------|
D|---------6---------------6---------------5----------------6---------|
A|--4---------4-----4---------4-----3---------3------4---------4------|
E|--------------------------------------------------------------------|




	CHORUS 1:
e|--0----0--0-0--0-0--0-0--2----2--2-2--2-2--2-2----4----4--4-4--4-4--4-4--|
B|--0----0--0-0--0-0--0-0--2----2--2-2--2-2--2-2----4----4--4-4--4-4--4-4--|
G|--1----1--1-1--1-1--1-1--3----3--3-3--3-3--3-3----6----6--6-6--6-6--6-6--|
D|--2----2--2-2--2-2--2-2--4----4--4-4--4-4--4-4----6----6--6-6--6-6--6-6--|
A|--2----2--2-2--2-2--2-2--4----4--4-4--4-4--4-4----4----4--4-4--4-4--4-4--|
E|--0----0--0-0--0-0--0-0--2----2--2-2--2-2--2-2----4----4--4-4--4-4--4-4--|

e|--4----4--4-4--4-4--4-4--|
B|--4----4--4-4--4-4--4-4--|
G|--6----6--6-6--6-6--6-6--|
D|--6----6--6-6--6-6--6-6--|
A|--4----4--4-4--4-4--4-4--|
E|--4----4--4-4--4-4--4-4--|




	CHORUS 2:
e|--0----0--0-0--0-0--0-0--2----2--2-2--2-2--2-2--|
B|--0----0--0-0--0-0--0-0--2----2--2-2--2-2--2-2--|
G|--1----1--1-1--1-1--1-1--3----3--3-3--3-3--3-3--|
D|--2----2--2-2--2-2--2-2--4----4--4-4--4-4--4-4--|
A|--2----2--2-2--2-2--2-2--4----4--4-4--4-4--4-4--|
E|--0----0--0-0--0-0--0-0--2----2--2-2--2-2--2-2--|
[ Tab from: http://www.guitartabs.cc/tabs/s/shotgun_frontseat/free_my_inner_space_tab.html ]
e|--4--4-4--4-4--4-4--4-4--4---4--4-4--4----0--0-0--0--0----|
B|--4--4-4--4-4--4-4--4-4--4---4--4-4--4----0--0-0--0--0----|
G|--6--6-4--4-6--6-4--4-6--4h6-6--6-4--4----3--3-3--3--3s1--|
D|--6--6-4--4-6--6-4--4-6--4h6-6--6-4--4----4--4-4--4--4s2--|
A|--4--4-4--4-4--4-4--4-4--4---4--4-4--4----4--4-4--4--4s2--|
E|--4--4-4--4-4--4-4--4-4--4---4--4-4--4----x--x-x--x--0----|




	CHORUS 3:                                   let ring
e|--0----0--0-0--0-0--0-0--2----2--2-2--2-2--2-2----4------------------4--|
B|--0----0--0-0--0-0--0-0--2----2--2-2--2-2--2-2----4------------------4--|
G|--1----1--1-1--1-1--1-1--3----3--3-3--3-3--3-3----5------------------5--|
D|--2----2--2-2--2-2--2-2--4----4--4-4--4-4--4-4----4---------------4-----|
A|--2----2--2-2--2-2--2-2--4----4--4-4--4-4--4-4----6-------------6-------|
E|--0----0--0-0--0-0--0-0--2----2--2-2--2-2--2-2----4-----------4---------|




	RIFF 2:
e|--0----------0----------0----------0----------|
B|-----0----------0----------0----------0-------|
G|--------3cb--------3cb--------3cb--------3cb--|
D|----------------------------------------------|
A|----------------------------------------------|
E|----------------------------------------------|




	RIFF 3:
e|----------------------------------------------------------------|
B|----------------------------------------------------------------|
G|----------------------------------------------------------------|
D|--6xx6xx6--xxxxxx6xx6xx6--xxxxxx5xx5xx5--xxxxxx6xx6xx6--xxxxxx--|
A|--4xx4xx4--xxxxxx4xx4xx4--xxxxxx3xx3xx3--xxxxxx4xx4xx4--xxxxxx--|
E|----------------------------------------------------------------|




	STRUCTURE:
Intro: RIFF 1 x2
Verse: RIFF 1 x4
Chorus: CHORUS 1, CHORUS 3
Verse: RIFF 1 x4
Chorus: CHORUS 1, CHORUS 3
Middle 1: RIFF 2
Middle 2: RIFF 3 x2
Chorus: CHORUS 2 x3, CHORUS 3
Chorus: CHORUS 2 x3, CHORUS 3 x2
Ending: RIFF 1 fade out




	LYRICS:
for lyrics go to Music section of www.shotgunfrontseat.co.uk




   TAB HELP
| s  slide
| h  hammer-on
| p  pull-off
| ~  vibrato
| +  harmonic
| x  Mute note
| b  bend note
| cb continuously bend note up and down a semitone very quickly
============================================================================
Comments