Shootyz Groove - L-train Chords & Tabs

 

L-train Chords & Tabs

Shootyz Groove Chords & Tabs

Version: 1 Type: Tab 0 ratings
1 star 2 stars 3 stars 4 stars 5 stars
comments

L-train Tab

#-----------------------------------------------------------------------------#
#-- File created with Instab - http://www.pconline.com/~smcarey/instab.html --#
#-----------------------------------------------------------------------------#

Author/Artist: Shootyz Groove
Title: L-Train
Album: High Definition
Transcribed by: Nick Powers
Email: nikgp@aol.com

hey...i did this from memory, so there's probably a few
screw ups...hope it helps,

Nick

-x-x-2-x-x-2-x-x-2-x-x-1---|-x-x-2-x-x-2-x-x-2-x-x-1--------------------------
-x-x-2-x-x-2-x-x-2-x-x-1---|-x-x-3-x-x-3-x-x-3-x-x-2--------------------------
-x-x-2-x-x-2-x-x-2-x-x-1---|-x-x-4-x-x-4-x-x-4-x-x-3--------------------------
-x-x-4-x-x-4-x-x-4-x-x-3---|-x-x---x-x---x-x---x-x----------------------------
---------------------------|--------------------------------------------------
---------------------------|--------------------------------------------------
2x 2x 

-----0------------------------|-0---------------------------------------------
-----2------------------------|-0---------------------------------------------
-----2------------------------|-1--------------------------------4------------
-----2------------------------|-2--------------------------------4------------
-0p2-0------------------------|-2--------------------------------2------------
------------------------------|-0---------------------------------------------
riding on the train groovin on the L train i aint got 

------------------------------------------------------------------------------
------------------------------------------------------------------------------
--------------------7--------9------------------------------------------------
--------------------7--------9------------------------------------------------
--------------------5--------7------------------------------------------------
------------------------------------------------------------------------------
no problems no more no more (can't remmember if the chords on this are 
[ Tab from: http://www.guitartabs.cc/tabs/s/shootyz_groove/l_train_tab.html ]
------------------------------------------------------------------------------
------------------------------------------------------------------------------
------------------------------------------------------------------------------
------------------------------------------------------------------------------
------------------------------------------------------------------------------
------------------------------------------------------------------------------
right 

--------------------------|---------------------------------------------------
--------------------------|---------------------------------------------------
---------6h7p6------------|-----------6---------------------------------------
-4--4----------7-6-7-6-7--|---4--4-----6-7-6-7-6-7----------------------------
--------------------------|---------------------------------------------------
--------------------------|---------------------------------------------------
(bridge) (also did this from memory..so it might not be exact) (repeat) 

--------------------------------------------------|---------------------------
--------------------------------------------------|---------------------------
--------------------------------------------------|---------------------------
-----3--4--4--------------------------------------|---------------------------
--------------4--4--5--5----4--2-2-2-2-2--3--4--4-|---------------------------
--------------------------------------------------|---------------------------


--------------------------------------------------|---------------------------
--------------------------------------------------|---------------------------
--------------------------------------------------|---------------------------
-3--4--4------------------------------------------|---------------------------
---------4--4--5-5-5-5-4--4-2-2-2-2-2--3--4--4----|---------------------------
--------------------------------------------------|---------------------------
(repeat) 

------------------------------------------------------------------------------
------------------------------------------------------------------------------
-----------------------9------------9-----------------------------------------
-4----4-4-2------4-6-7--------4-6-7-------------------------------------------
------------------------------------------------------------------------------
------------------------------------------------------------------------------
oops...heres the intro (should be in the beginning) 

Comments