Shooting Blanks - Silly Goose Chords & Tabs

 

Silly Goose Chords & Tabs

Shooting Blanks Chords & Tabs

Version: 1 Type: Tab 0 ratings
1 star 2 stars 3 stars 4 stars 5 stars
comments

Silly Goose Tab

   
-------------------------------------------------------------------------------
			     SILLY GOOSE - Shooting Blanks
-------------------------------------------------------------------------------

Album: Wasted Time
Tabbed by: Matt Hoffman
Email: Hoffman@shootingblanks.net

Tuning: Standard - E A D G B E


CHORUS:
G           D           G           D

E     D     C     B     A	    D

G           D           G           D

E     D     C     B     A	    D


VERSE:
G           E     C

G           E     C

A           D

A           D


PRE-BREAK:
D    C    B    A    G


BREAK:
   G          C                B    C      B A
e|-------------------------------------------------------|
B|-------------------------------------------------------|
G|---7~~~-5-4-5-4--------------4---4-5-4---4-------------|
D|-5---------------7~~~--7-5-7---7-------5---7~~~--------|
B|-------------------------------------------------------|
E|-------------------------------------------------------|
[ Tab from: http://www.guitartabs.cc/tabs/s/shooting_blanks/silly_goose_tab.html ]
   G          C                B    C      D
e|-------------------------------------------------------|
B|-------------------------------------------------------|
G|---7~~~-5-4-5-4--------------4---4-5-4---7~~~~~--------|
D|-5---------------7~~~--7-5-7---7-------5---------------|
A|-------------------------------------------------------|
E|-------------------------------------------------------|

   G               C              B      C     B  A
e|---10~~~-8-7-8-7----------------7----7-8-7---7---------|
B|-8---------------10~~~--10-8-10---10-------8----10~~~--|
G|-------------------------------------------------------|
D|-------------------------------------------------------|
A|-------------------------------------------------------|
E|-------------------------------------------------------|

   G               C              B      C     D
e|---10~~~-8-7-8-7----------------7----7-8-7---10~~~~~---|
B|-8---------------10~~~--10-8-10---10-------8-----------|
G|-------------------------------------------------------|
D|-------------------------------------------------------|
A|-------------------------------------------------------|
E|-------------------------------------------------------|

| /  slide up
| \  slide down
| h  hammer-on
| p  pull-off
| ~  vibrato
| +  harmonic
| x  Mute note
===============================================================================
Comments