Shooting Blanks - Payback Chords & Tabs

 

Payback Chords & Tabs

Shooting Blanks Chords & Tabs

Version: 1 Type: Tab 0 ratings
1 star 2 stars 3 stars 4 stars 5 stars
comments

Payback Tab

   
-------------------------------------------------------------------------------
			PAYBACK - Shooting Blanks
-------------------------------------------------------------------------------

Album: Nuclear Family
Tabbed by: Matt Hoffman
Email: Hoffman@shootingblanks.net

Tuning: Standard - E A D G B E


INTRO:
   B           F#           G#           E
e|--------------------------------------------------|
B|-4444444444444444444444444444444444444-4-2---2----|
G|-4444444444444444444444444444444444444-----4------|   x 2
D|--------------------------------------------------|
A|--------------------------------------------------|
E|--------------------------------------------------|
[ Tab from: http://www.guitartabs.cc/tabs/s/shooting_blanks/payback_tab.html ]
then hold B, F#, G#, E x2


Verse:
B    F#    G#   E


CHORUS:
G#   F#    B    E

G#   F#


BREAK:
  B           F#           G#           E
e|-------------------------4----------------0-----0-|
B|-4------------------4--------4----------0-----0---|
G|-----4----------3----------------4----1-----1-----|   x 2
D|---------4--4-------------------------------------|
A|--------------------------------------------------|
E|--------------------------------------------------|

| /  slide up
| \  slide down
| h  hammer-on
| p  pull-off
| ~  vibrato
| +  harmonic
| x  Mute note
===============================================================================
Comments