Shonen Knife - Little Tree Chords & Tabs

 

Little Tree Chords & Tabs

Shonen Knife Chords & Tabs

Version: 2 Type: Bass Tab 0 ratings
1 star 2 stars 3 stars 4 stars 5 stars
comments

Little Tree Bass Tab

"Little Tree" off of Rock Animals
by Shonen Knife

This is basically the entire song:

  1 2 3 4  1 2 3 4  1 2 3 4  1 2 3 4
g|--------|--------|--------|--------|
d|------2-|--------|------2-|--------|
a|0---4---|------2-|0---4---|------2-|
e|--------|0---4---|--------|-0--4---|
[ Tab from: http://www.guitartabs.cc/tabs/s/shonen_knife/little_tree_btab_ver_2.html ]
g|--------|--------|--------|--------|
d|------2-|--------|------2-|--------|
a|0---4---|------2-|0---4---|-0--4-2-|
e|--------|0---4---|--------|--------|

There are also some parts where the bass cuts out,
and some parts I can't figure out, but they are
basically variations on this main part.


Tabbed by Massa Hoo-Ay
         hooay@uswest.net
Comments