Shocked Michelle - Black Widow Chords & Tabs

 

Black Widow Chords & Tabs

Shocked Michelle Chords & Tabs

Version: 1 Type: Tab 0 ratings
1 star 2 stars 3 stars 4 stars 5 stars
comments

Black Widow Tab

   
#----------------------------------PLEASE NOTE---------------------------------#
#This file is the author's own work and represents their interpretation of the #
#song. You may only use this file for private study, scholarship, or research. #
#------------------------------------------------------------------------------##
From: j3kaes01@fsrz1.rz.uni-passau.de (KAESTNER JAN)

MICHELLE SHOCKED - SHORT SHARP SHOCKED
---------------------------------------
10. Black Widow

  4/4   Tempo ca.: 104 bpm
  in Em; No Capo

Intro:
Em 6x
(a rather complicated melody: the first three notes I somehow
 cannot figure out. I'd appreciate comments on the intro; is it
 played by one guitars and two banjos?)
[ Tab from: http://www.guitartabs.cc/tabs/s/shocked_michelle/black_widow_tab.html ]
  1   2   3   4     1   2   3   4     1   2   3   4     1   2   3   4
  Em                Dadd9             C                 G6
E 0---------------|-0---------0-----|-0---------0-----|---0-------0-----|
B ----------0-----|-------3-------3-|-------1-------1-|-------0-------0-|
G ------0---------|-----2-------2---|-----0-------0---|-----0-------0---|
D ----2-------2---|-0---------------|---------0h2-----|-----------------|
A --------2-------|---------0-------|-3---------------|-2---------------|
E 0---------------|-----------------|-----------------|---------3-------|
2x
(this part is played over and over and thus called Em...)

Verses:
Em...
Time is red, time is deadly
Time under glass, time will tell (time will tell)
    Em...
The tale of the widow who walks her web
Mourning the night, mourning the dead (mourning the dead)
        Em...
Did you lose him to a broom trapped in a corner of the room
Or was it under the foot of the marching black boot (marching black boot)
          Em...
Is it the loneliness of night that makes you reach out and bite
The unawakened flesh you lady in distress, oh, you poor, poor suffering
  murderess

Em 6x
Em 4x

Em... :|

Em...
Time is red, time is deadly
Time under glass, time will tell (time will tell)
Time will tell
Time will tell

-----------------------------------------------------------------------------
s-mail: Jan Kaestner              e-mail: j3kaes01@fsrz1.rz.uni-passau.de
        Breslauer Strasse 8 g     tel.:   0851/57961
        94036 Passau
        Germany
-----------------------------------------------------------------------------

Comments