Shmuck - Mafia Chords & Tabs

 

Mafia Chords & Tabs

Shmuck Chords & Tabs

Version: 1 Type: Bass Tab 0 ratings
1 star 2 stars 3 stars 4 stars 5 stars
comments

Mafia Bass Tab

Intro:
G|-------------------------------|
D|-------------------------------|
A|-------------2----5-5p4p2------|  (x2)
E|--0---0--2h4--------------5--3-|

Bridge:
G|---------------------------------------------|
D|---------------------------------------------|
A|--/7-7-7-7-7-7-7-7---7-7-7-7-7-7-7-7-7-------|
E|----------------------------------------7~~~~|

(repeat intro about twice as fast)

Verse:
(pt.1)
G|----------------------------------------------------|
D|--------------6-7-9-7-6--------------9-7-6-7-9-7-6--|
A|--7-7-7-7-7-7------------7-7-7-7-7-7----------------|
E|----------------------------------------------------|
(pt. 2)
G|----------------------------------------------------|
D|------------------------------------------6-7-9-7-6-|
A|--------------6-7-9-7-6-7-6---7-7-7-7-7-7-----------|
E|--7-7-7-7-7-7---------------------------------------|

(repeat pt.1)
[ Tab from: http://www.guitartabs.cc/tabs/s/shmuck/mafia_btab.html ]
G|--------------------------------------------|
D|--------------------------------------------|
A|--------------6-7-9-7-6-7-6---7-7-7-7-7-7\--|
E|--7-7-7-7-7-7-------------------------------|

Chorus:
G|----------------------------------------------|
D|----------------------------------------------|
A|----------------------------------------------|
E|--5--5--0--(hey! hey!)--5--5--0--(hey! hey!)--|

G|------------------------------|
D|------------------------------|
A|------------------------------|
E|--5--5--0--0--2-2-2-2-2-2-2-2-|

(verse both parts)
(chorus)
(verse both parts)
(chorus)

Outro:
G|---------------------------------------------------------|
D|---------------------------------------------------------|
A|-7-7-7-7-7-7-7-7-7-7-7-7-7-7-7-7-7-7-------------777777-7|
E|--------------------------------------7~~~~7-7-7---------|

to listen to the song, go to http://www.shmuck.cjb.net
and click on the listen link.
Comments