Shizuka - Redline 95 Chords & Tabs

 

Redline 95 Chords & Tabs

Shizuka Chords & Tabs

Version: 1 Type: Tab 0 ratings
1 star 2 stars 3 stars 4 stars 5 stars
comments

Redline 95 Tab

Artist : Shizuka
Album : Kopi Sechewen vol. 2
Song title : Redline 95
Genre : Grunge

riff 1 

E-|----------| 
B-|-8-8-8----| 
G-|-9-9-9----| 3X 
D-|-9-9-9----| 
A-|-7-7-7----| 
E-|----------| 

And when people step out this red line 


E-|--------------| 
B-|-7-7-7-4-4-4--| 
G-|-7-7-7-4-4-4--| 
D-|-7-7-7-4-4-4--| 
A-|-5-5-5-2-2-2--| 
E-|--------------| 


I'll never let them to go 


E-|----------| 
B-|-8-8-8----| 
G-|-9-9-9----| 3X 
D-|-9-9-9----| 
A-|-7-7-7----| 
E-|----------| 

Never laugh cause this is the dead end 


E-|--------------| 
B-|-7-7-7-4-4-4--| 
G-|-7-7-7-4-4-4--| 
D-|-7-7-7-4-4-4--| 
A-|-5-5-5-2-2-2--| 
E-|--------------| 

Is it my end before it start to show 


Kemudian ulang Riff 1 : 

And when people step out this red line 
Mean no other place need to go 
Let the future past in the mean time 
Faces the griefness here all alone 

Lepas abis, terus masuk chorus ni : 

Chorus : 

E-|------------------| 
B-|-5-5-5-7-7-7------| 
G-|-5-5-5-7-7-7------| 
D-|-5-5-5-7-7-7------| 
A-|-3-3-3-5-5-5------| 
E-|------------------| 

It was you call me and told me 


E-|------------------| 
B-|-4-4-4-8-8-8------| 
G-|-4-4-4-9-9-9------| 
D-|-4-4-4-9-9-9------| 
A-|-2-2-2-7-7-7------| 
E-|------------------| 

Help me out and shine up my life 


E-|----------------------| 
B-|-5-5-5-7-7-7-8-8-8----| 
G-|-5-5-5-7-7-7-9-9-9----| 
D-|-5-5-5-7-7-7-9-9-9----| 
A-|-3-3-3-5-5-5-7-7-7----| 
E-|----------------------| 

It was u call me again tell I am without 


Ulang chorus lagi sekali : 

It was you call me and told me 
Blur up my eyes and left me alone 
It was you told me the lies I always spoke 
[ Tab from: http://www.guitartabs.cc/tabs/s/shizuka/redline_95_tab.html ]
Pastu ulang balik depade riff 1 sampai chorus pastu solo : 

Solo : 

E-|-------------------------------------------| 
B-|-------------------------------------------| 
G-|-------------------------------------------| 
D-|-9-11-12----12-11-11/9-9-12-11-11-11-9/11--| 
A-|---------10--------------------------------| 
E-|-------------------------------------------| 

E-|-------------------------------------------| 
B-|-------------------------------------------| 
G-|-------------------------------------------| 
D-|-9-11-12----12-11-11/9-9-12-11-------------| 
A-|---------10--------------------13-12-10-12-| 
E-|-------------------------------------------| 

E-|--------------------------------------------------------------| 
B-|--------------------------------------------------------------| 
G-|--------------------------------------------------------------| 
D-|--------------------------------------------------------------| 
A-|--------------------------------------------------------------| 
E-|-12-12/8-8-10-10/7-7-12-14-15-17-15-14-15/17-19-20-17-19p-----| 

rujukan : / = slide atau gelongsor 
p = pull of atau menarik 

Dah abis goreng tuh masuk nyanyi chorus balik pastu abis.. 


Lyrics: 
And when people step out this red line 
I'll never let them to go 
Never laugh cause this is the dead end 
Is it my end before it start to show 

And when people step out this red line 
Mean no other place need to go 
Let the future past in the mean time 
Faces the griefness here all alone 

Chorus : 
It was you call me and told me 
Help me out and shine up my life 
It was u call me again tell I am without 

It was you call me and told me 
Blur up my eyes and left me alone 
It was you told me the lies I always spoke
Comments