Shivaree - Goodnight Moon Chords & Tabs

 

Goodnight Moon Chords & Tabs

Shivaree Chords & Tabs

Version: 2 Type: Tab 0 ratings
1 star 2 stars 3 stars 4 stars 5 stars
comments

Goodnight Moon Tab

   
This is a great song by Shivaree.  I've actually performed it on stage a few times,
and this worked beautifully.

To start, the main bass riff of the song is this:
  Intro bass
G |--------------------------------||
D |---------2--3--2----------------||  x3
A |---0--3-----------3--2--0-------||
E |--------------------------------||

G |--------------------------------||
D |--------------------------------||  
A |---0-0-0-0-0-0-0-0-0------------||
E |--------------------------------||

If you're playing without a bass, you can mute this riff
on your guitar.  Common sense.

Now, there's a buzzing sound under the bass in the intro.
That can simply be duplicated with an A.  

  Intro guitar (Optional)
E |---------------------------||
B |---------------------------||
G |---------------------------||
D |--2------(Bass Riff Plays)-||   x4
A |--0------------------------||
E |---------------------------||

Ok.  One more optional thing.  Throughout the song, there's this
descending riff that's repeated.  That's a keyboard going down half
notes, but I played it with harmonics on stage.  It just isn't as 
long as the keyboard riff, for lack of harmonic notes to play, but 
it sounds really pretty and spices up the song.

  Descending riff (Optional)
E |--------12*---------------------------------------||
B |----7*-----------12*------------------------------||
G |-------------7*-----------12*---------------------||
D |----------------------7*-----------12*------------||
A |-------------------------------7*-----------12*---||
E |----------------------------------------7*--------||

Now, that was mostly just little stuff.  Intro's done.  You can play
the verses and chorus' with a number of effects.  I'd recommend using
vibrato with a high rate, so it gives a shimmer.  But it's up to you.
Anyways, here's the song:

  Verse 1
       Ami        G        Dmi       Ami
E |-----0---------3---------1---------0-----||
B |-----1---------3---------3---------1-----||
G |-----2---------0---------2---------2-----||
D |-----2---------0---------0---------2-----||
A |-----0---------2-------------------0-----||
E |---------------3-------------------------||

        C         F         E7
E |-----0---------1---------0------0---------------||
B |-----1---------1---------3---3-----3------3-----||
G |-----0---------2---------1------------1---------||
D |-----2---------3---------2----------------------||
A |-----3---------3---------2----------------------||
E |-------------------------0----------------------||

       Ami        G        Dmi       Ami
E |-----0---------3---------1---------0-----||
B |-----1---------3---------3---------1-----||
G |-----2---------0---------2---------2-----||
D |-----2---------0---------0---------2-----||
A |-----0---------2-------------------0-----||
E |---------------3-------------------------||

        C         F         E7
E |-----0---------1---------0------0---------------||
B |-----1---------1---------3---3-----3------3-----||
G |-----0---------2---------1------------1---------||
D |-----2---------3---------2----------------------||
A |-----3---------3---------2----------------------||
E |-------------------------0----------------------||

  Chorus 1
        Dmi    Dmi    Ami    Ami
E |------1------1------0------0------||
B |------3------3------1------1------||
G |------2------2------2------2------||
D |------0------0------2------2------||
A |--------------------0------0------||
E |----------------------------------||

        Dmi    Dmi    E7     E7
E |------1------1------0------0------||
B |------3------3------3------1------||
G |------2------2------1------3------||
D |------0------0------2------2------||
A |--------------------2------2------||
E |--------------------0------0------||

        Dmi    Dmi    Ami    Ami
E |------1------1------0------0------||
B |------3------3------1------1------||
G |------2------2------2------2------||
D |------0------0------2------2------||
A |--------------------0------0------||
E |----------------------------------||

        Ami    E7     Ami
E |------0------0------0-----------||
B |------1------3------1-----------||
G |------2------1------2-----------||
D |------2------2------2-----------||
A |------0------2------0-----------||
E |------------------(Bass Riff)---||

Note: The same strumming from verse 1 is
      played under Verse 2, the solo, and
      the bridge as rhythm.


Verse 2 
[ Tab from: http://www.guitartabs.cc/tabs/s/shivaree/goodnight_moon_tab_ver_2.html ]
E |------------------------------/-17--17/15--15/21--21/12---||
B |---13----------------/-15--15-----------------------------||
G |-------14--14/12--12--------------------------------------||
D |----------------------------------------------------------||
A |----------------------------------------------------------||
E |----------------------------------------------------------||

E |------------------------------/-17--17/15--15/21--21/12---||
B |---13----------------/-15--15-----------------------------||
G |-------14--14/12--12--------------------------------------||
D |----------------------------------------------------------||
A |----------------------------------------------------------||
E |----------------------------------------------------------||

Chorus 2
        Dmi    Dmi    Ami    Ami
E |------1------1------0------0------||
B |------3------3------1------1------||
G |------2------2------2------2------||
D |------0------0------2------2------||
A |--------------------0------0------||
E |----------------------------------||

        Dmi    Dmi    E7     E7
E |------1------1------0------0------||
B |------3------3------3------1------||
G |------2------2------1------3------||
D |------0------0------2------2------||
A |--------------------2------2------||
E |--------------------0------0------||

        Dmi    Dmi    Ami    Ami
E |------1------1------0------0------||
B |------3------3------1------1------||
G |------2------2------2------2------||
D |------0------0------2------2------||
A |--------------------0------0------||
E |----------------------------------||

        Ami    E7     Ami
E |------0------0------0-----------||
B |------1------3------1-----------||
G |------2------1------2-----------||
D |------2------2------2-----------||
A |------0------2------0-----------||
E |------------------(Bass Riff)---||


  Guitar Solo
E |----------------------------------------------------||
B |----------------------------------------------------||
G |----------------------------------------------------||
D |----------8/10----9h10p9---10/12---10--12-----------||
A |------7------------------------------------10h12----||
E |---8------------------------------------------------||

E |----------------------------------------------------||
B |----------------------------------------------------||
G |----------------------------------------------------||
D |-------------5--------------------------------------||
A |---3~---5/7-----7/8---7--8-----10----13----17-------||
E |--------------------------------x-----x-----x-------||

  Bridge (Whispered Part)
E |------------------------------/-17--17/15--15/21--21/12---||
B |---13----------------/-15--15-----------------------------||
G |-------14--14/12--12--------------------------------------||
D |----------------------------------------------------------||
A |----------------------------------------------------------||
E |----------------------------------------------------------||

  Chorus 3
        Dmi    Dmi    Ami    Ami
E |------1------1------0------0------||
B |------3------3------1------1------||
G |------2------2------2------2------||
D |------0------0------2------2------||
A |--------------------0------0------||
E |----------------------------------||

        Dmi    Dmi    E7     E7
E |------1------1------0------0------||
B |------3------3------3------1------||
G |------2------2------1------3------||
D |------0------0------2------2------||
A |--------------------2------2------||
E |--------------------0------0------||

        Dmi    Dmi    Ami    Ami
E |------1------1------0------0------||
B |------3------3------1------1------||
G |------2------2------2------2------||
D |------0------0------2------2------||
A |--------------------0------0------||
E |----------------------------------||

        Ami    E7     Ami
E |------0------0------0-----------||
B |------1------3------1-----------||
G |------2------1------2-----------||
D |------2------2------2-----------||
A |------0------2------0-----------||
E |------------------(Bass Riff)---||

        Ami    E7     Ami
E |------0------0------0-----------||
B |------1------3------1-----------||
G |------2------1------2-----------||
D |------2------2------2-----------||
A |------0------2------0-----------||
E |--------------------------------||


G |--------------------------------||
D |---------2--3--2----------------||  x4
A |---0--3-----------3--2--0-------||
E |--------------------------------||

Thanks for your time.

Questions or comments: FLiPskater2525@aol.com
Comments