Shivaree - Goodnight Moon Chords & Tabs

 

Goodnight Moon Chords & Tabs

Shivaree Chords & Tabs

Version: 1 Type: Tab 0 ratings
1 star 2 stars 3 stars 4 stars 5 stars
comments

Goodnight Moon Tab

   
shivaree goodnight moon.
Tabbed by william blake.
  
  SHIVAREE  GOODNIGHT MOON
|-----------------|
|-----------------|
|-----------------|  <- Bass Riff
|-----2-3-2-------|
|-0-3-------3-2-0-|
|-----------------|


                               lam                                         Sol                               
There's a nail in the door And there's glass on the lawn
                           rem                    lam
Tacks on the floor And the TV is on
               Do                             Fa                         Mi
And I always sleep with my guns when you're gone 
                                      lam                                Sol
 There's a blade by the bed And a phone in my hand
                     rem                                       lam
A dog on the floor And some cash on the nightstand
                 Do                           Fa                                   Mi
 When I'm all alone the dreaming stops And I just can't stand 

Chorus:
                        rem
  What should I do I'm just a little baby
                         lam
 What if the lights go And maybe
                        rem
 and then the wind just starts to moan
                      Mi
 Outside the door he followed me home 
                           rem
  So goodnight moon I want the sun                       
                        lam                Mi                    lam
 No it wont be too soon 'til I say goodnight moon 

[ Tab from: http://www.guitartabs.cc/tabs/s/shivaree/goodnight_moon_tab.html ]
                                     lam                              Sol
  There's a shark in the pool And a witch in the tree
                      rem                                   lam
A crazy old neighbor and he's been watching me 
                        Do                           Fa                           Mi
And there's footsteps loud and strong coming down the hall 
                                    lam                                 Sol
Something's under the bed Now it's out in the hedge
                           rem                                        lam
 There's a big black crow sitting on my window ledge
                      Do                   Fa                       Mi 
And I hear something scratching through the wall

Chorus:
                          rem 
  What should I do I'm just a little baby
                          lam
 What if the lights go out And maybe 
                       rem
and then the wind just starts to moan
                       Mi
 Outside the door he followed me home 
                          rem
So goodnight moon I want the sun
                         lam
 If it's not here soon I might be done
                       lam                Mi                   lam
No it won't be too soon 'til I say goodnight moon                        

Verse with Guitar riff : (guitar riff played twice)
(There's a shark...)

      /       \      /      /      \      /      \
e|---------------------------17--17-15--15-21--21-12-|
B|-13-----------------15--15-------------------------|
G|----14----14-12--12--------------------------------|
D|---------------------------------------------------|
A|---------------------------------------------------|
E|---------------------------------------------------|

Guitar solo :
                 h p
e|-------------------------------------------------------------|
B|-----------12-13-12-12-13-15--12-13--------------------------|
G|----12-14---------------------------14-------12--------------|
D|-14---------------------------------------14----15--14-15-14-|
A|---------------------------------------15--------------------|
E|-------------------------------------------------------------|                     BY WILLIAM BLAKE


This page provided free by The Express Page. CLICK HERE  for your FREE HOMEPAGE.
 
:: Ultimate Guitar Archive :: 
http://www.ultimate-guitar.com 

Comments