Shironamhin - Chithi Chords & Tabs

 

Chithi Chords & Tabs

Shironamhin Chords & Tabs

Version: 1 Type: Tab 0 ratings
1 star 2 stars 3 stars 4 stars 5 stars
comments

Chithi Tab

   
Chithi
Shironamhin
Tabbed By:Tanvir Ahmed

Intro:

E----------------------------------------|
B--2--2----4---5---2--2---4---5---7---9--|
G----------------------------------------|
D----------------------------------------|
A----------------------------------------|
E----------------------------------------|

E------------------------------------------|
B--2--2--4--5--9--7--5---7---5--5--4--2----|
G------------------------------------------|
D------------------------------------------|
A------------------------------------------|
E------------------------------------------|

Am.................................F.......................
Chithi pouche jabe, shohor jora
C......................................G....................
Chithi pouche jabe, shobuj gram e
Am.................................F......................
Chithi pouche jabe, prithibir prante
G......................................C....................
Chithi pouche jabe, rongin khame

Am.................................F........................
Chithi pouche jabe, michile michile
C......................................G.....................
Ashche khobor, hobe khider oboshan
Am.................................F......................
Ruddho daridrer chena thikanay
G......................................C.....................
Chole jak chithi chena voroshay

Solo:
(I dont know how is it..my first solo tab)

E--------------------------------------------------------|
B-5--7--5--7s9--7--5-4--5--7--5--7--5--7--5--4-----------|
G--------------------------------------------------------|
D--------------------------------------------------------|
A--------------------------------------------------------|
E--------------------------------------------------------|
[ Tab from: http://www.guitartabs.cc/tabs/s/shironamhin/chithi_tab.html ]
E--------------------------------------------------------|
B-79p-7-7p9--79p-7--79p-7--79p-7-------------------------|
G--------------------------------------------------------|
D--------------------------------------------------------|
A--------------------------------------------------------|
E--------------------------------------------------------|

E--------------------------------------------------------|
B-2--4--5--4--2--4--5--4--2------------------------------|
G--------------------------------------------------------|
D--------------------------------------------------------|
A--------------------------------------------------------|
E--------------------------------------------------------|

E-------------------------------------------------------|
B-4s5--5h7--5h7-5h7-5h7-5h7-5h7-5h7-5h7-5h7-------------|
G-------------------------------------------------------|
D-------------------------------------------------------|
A-------------------------------------------------------|
E-------------------------------------------------------|

F.......................................G........................
Ekta chithi, jar biboron chilo lokkho shishur itihash
C.......................................Am.......................
Shishur duchokhe kannay likha chilo, khide muktir boshobash

F.......................................G..........................
Ekta rongin khame thikana chilo, kono ek shobuj gram
C.................................................Am..............
Shikkhar shonglape dur hoye jabe obhidhan


Am.................................F........................
Chithi pouche jabe, khidher thikana
C......................................G..........................
Chithi pouche jabe, opar ashay
Am.................................F........................
Chithi pouche jabe, moner prante
G......................................C..........................
Chithi pouche jabe valobashay
Comments