Shins - Turn A Square Chords & Tabs

 

Turn A Square Chords & Tabs

Shins Chords & Tabs

Version: 2 Type: Tab 0 ratings
1 star 2 stars 3 stars 4 stars 5 stars
comments

Turn A Square Tab

   
-------------------------------------------------------------------------------
			     Turn A Square - The Shins
-------------------------------------------------------------------------------
Tabbed by: Bert
Email: kline.159@osu.edu

Tuning: eBGDAE

Verse
e|---------------------------------------------------------------------------|
B|---------------------------------------------------------------------------|
G|---------------------------------------------------------------------------|
D|-------------------------4-2-0------------------------------4-2-0----------|
A|---------4-2-0----0-0-4-0-------4------2---5-4-2-0--0-0-4-0-------4--------|
E|-0-0-4-0-------4-------------------3-3---3---------------------------------|

e|---------------------------------------------------------------------------|
B|---------------------------------------------------------------------------|
G|-------------------------------------------4-2-0---------------------------|
D|-------------------------4-2-0-----0-0-4-0-------4----------4-5-4-2--------|
A|---------4-2-0----0-0-4-0-------4-------------------0-0-4-0----------------|
E|-0-0-4-0-------4-----------------------------------------------------------|
[ Tab from: http://www.guitartabs.cc/tabs/s/shins/turn_a_square_tab_ver_2.html ]
Chorus
   D  UD  D  UDU  D   D    D  UD  D U D U   D  D                              
e|---------------------------------------------------------------------------|
B|---------------------------------------------------------------------------|
G|-4--66--7--999--11--12---6--77--9-111111--9--7-----------------------------|
D|---------------------------------------------------------------------------|
A|-2--44--5--777--9---10---4--55--7-9-9-9---7--5-----------------------------|
E|---------------------------------------------------------------------------|

   D  UD  D  UDU  D   D    D  UD  DU  DDDDDD
e|---------------------------------------------------------------------------|
B|---------------------------------------------------------------------------|
G|-4--66--7--999--11--12---6--77--66--444444---------------------------------|
D|---------------------------------------------------------------------------|
A|-2--44--5--777--9---10---4--55--44--222222---------------------------------|
E|------------------------------------000000---------------------------------|

e|---9-0---------------------------------------------------------------------|
B|-------8-0-----------------------------------------------------------------|
G|-----------7-0-6-0---------------------------------------------------------|
D|---------------------------------------------------------------------------|
A|---------------------------------------------------------------------------|
E|---------------------------------------------------------------------------|



| /  slide up
| \  slide down
| h  hammer-on
| p  pull-off
| ~  vibrato
| +  harmonic
| x  Mute note
===============================================================================
Comments