Shins - Those To Come Chords & Tabs

 

Those To Come Chords & Tabs

Shins Chords & Tabs

Version: 2 Type: Tab 0 ratings
1 star 2 stars 3 stars 4 stars 5 stars
comments

Those To Come Tab

   
THE SHINS - "Those To Come" (from "Chutes Too Narrow," 2003)

tabbed by Francesco Forin
send comments to forin@gmx.it
--

pretty easy to play... just play these arpeggios over and over.
I tried to indicate how the lyrics match up, but you'll get a better feel by listening 
the song.
enjoy!

standard tuning

	D  {repeat}
E|--------------------------|
B|-----------3-----0---3----|
G|--------2-----2-----------|
D|-----0--------------------|
A|--------------------------|
E|--------------------------|


	A  {repeat}
E|--------------------------|
B|--------------------------|
G|-----------2-----0---2----|
D|--------2-----2-----------|
A|-----0--------------------|
E|--------------------------|


	Em  {repeat}
E|-----------0-----2---0----|
B|--------0-----0-----------|
G|--------------------------|
D|-----2--------------------|
A|--------------------------|
E|--------------------------|

[ Tab from: http://www.guitartabs.cc/tabs/s/shins/those_to_come_tab_ver_2.html ]
   D			D
Eyeless in the morning sun you were
   D		   D
Pale and mild, a modern girl
   D			    D
Taken with thought, still prone to care
   D                D
Making tea in your underwear
          A
You went out in the yard to find


   A		       A
Something to eat and clear your mind
   A		     A	      D
Something bad inside me went away


   D		     D
Quaking leaves and broken light
   D		    D
Shifting skin the coming night
   D			  D
The bearers of all good things arrive
   D		   D
Climb inside us, twist and cry
   A
A kiss on your molten eyes


   A	            A
Myriad lives like blades of grass
   A		    A		 D
Yet to be realized, bow as they pass


   D
They are cold,
   D
Still,
   D
Waiting in the ether,
   Em
To form,
 Em
Feel,
 Em
Kill,
 Em
Propagate,
 Em       D
Only to die
[x2]


  D
Dissolve
  D
Magically,
  D
Absurdly,
        Em
They'll end,
  Em
Leave,
  Em
Dissipate,
  Em
Coldly
        Em
And strangely
   D
Return
Comments