Shins - Pink Bullets Chords & Tabs

 

Pink Bullets Chords & Tabs

Shins Chords & Tabs

Version: 1 Type: Tab 0 ratings
1 star 2 stars 3 stars 4 stars 5 stars
comments

Pink Bullets Tab

   
-------------------------------------------------------------------------------
			  Pink Bullets - The Shins
-------------------------------------------------------------------------------
Tabbed by: Bert
Email: kline.159@osu.edu

Tuning:eBGDAE

rhythm capo 3

Verse solo tabbed as if no capo:
e|--10---\8----8---\5--5--5--------------------------------------------------|
B|-----8-\6------6-\3--------6--6h8------------------------------------------|
G|----------------------------------7----------------------------------------|
D|---------------------------------------------------------------------------|
A|---------------------------------------------------------------------------|
E|---------------------------------------------------------------------------|

Chorus
[ Tab from: http://www.guitartabs.cc/tabs/s/shins/pink_bullets_tab.html ]
G   D Dsus4 D
G   D Dsus4 D
G   D Dsus4 D
F   C   D

Bridge fill (as if capo 3)
e|---------------------------------------------------------------------------|
B|---------------------------------------------------------------------------|
G|---------------------------------------------------------------------------|
D|---------------------------------------------------------------------------|
A|----------0-2-3------------------------------------------------------------|
E|---3----3------------------------------------------------------------------|

Bridge Chords

C   D   F   Fill
C   D   F   Fill
C   D   Fill 
C   C
D   D



| /  slide up
Comments