Shinedown - Stranger Inside Chords & Tabs

 

Stranger Inside Chords & Tabs

Shinedown Chords & Tabs

Version: 1 Type: Tab 0 ratings
1 star 2 stars 3 stars 4 stars 5 stars
comments

Stranger Inside Tab

   
-------------------------------------------------------------------------------
			" STRANGER INSIDE"      SHINEDOWN
-------------------------------------------------------------------------------
Tabbed by:BRANDONBRAY
Email:brandonbray2002@yahoo.com

Tuning:CGCFAD


intro
D|-----------------------------------------------------------------------------|
A|-----------------------------------------------------------------------------|
F|-----------------------------------------------------------------------------|
C|-----------------------------------------------------------------------------|
G|-5555555555555555555-------drums enter---------------------------------------|
C|-----------------------------------------------------------------------------|

MAIN RIFF
D   -----------------------------------------------------------------|
A   -----------------------------------------------------------------|
F   ------h-----h------------h------H---------H------H---------------|
C   0----2-3---5-7-----0---2--3----7-8----0--2-3---5--7-----H--------|PLAY THRU TWICE
G   0----2-3---5-7-----0---2--3----7-8----0--2-3---5--7----3-555553--|
c   0----2-3---5-7-----0---2--3----7-8----0--2-3---5--7------------0-|


VERSE    ''LET CHORDS RING OUT''
D|X----X-----------------------------------------------------------------------|
A|3----3-----------------------------------------------------------------------|
F|2----3-----------------------------------------------------------------------|
C|0----0----THEN REPEAT--------------------------------------------------------|
G|0----0-----------------------------------------------------------------------|
C|0----0-----------------------------------------------------------------------|

BUILD UP BEFORE CHORUS.........(so take it while u can,.....
D|-------------------------------------------------------------------------|
A|-------------------------------------------------------------------------|
F|-7-----------------------------------------------------------------------|
C|-x-(12times)--8-----------5-----------1-1-1-1--1-3-5---------------------|
G|-5------------8-(12times)-5-(12times)-1-1-1-1--1-3-5--  PLAY THRU TWICE--|
C|--------------8-----------5-----------1-1-1-1--1-3-5---------------------|
[ Tab from: http://www.guitartabs.cc/tabs/s/shinedown/stranger_inside_tab.html ]
chorus    (HAVE YOU EVER FELT LOST INSIDE....)
D|-----------------------------------|
A|-----------------------------------|
F|-7---------------------------------|
C|-7-//////--8-------5-----8------3--|
G|-5---------8-/////-5-///-8-////-3--|
C|-----------8-------5-----8------3--|

MAIN RIFF TWICE AGIN.......
THEN SECOND VERSE.........
CHORUS BUILD UP......
CHORUS...........


INTERLUDE
D|---------------------------------------------------------------------------------|
A|---------------------------------------------------------------------------------|
F|---------------------------------------------------------------------------------|
C|---------------------0-8------------------------H----3---------------------------|
G|---------------------0-8-----------------------3--5------------------------------|
C|-0-0-0-0---0-0-0-0---0-8----0-0-0-0---0-0-0-0------------------------------------|

D-----------------------------------------------------------------------------------|
A|----------------------------------------------------------------------------------|
F|------------------------------------------------------H---------------------------|
C|---------------------0-8------------------------H----3-5--------------------------|
G|---------------------0-8-----------------------3--5-------------------------------|
C|-0-0-0-0---0-0-0-0---0-8----0-0-0-0---0-0-0-0-------------------------------------|


D|-----------------------------------------------------------------------------------|
A|-----------------------------------------------------------------------------------|
F|---------------------------------------------------------------H-------------------|
C|-0-0-0-0-12-12-0-12---H----10-----0-0-0-0-12-12-0-12----H----10--12---PLAY TWICE---|
G|-0-0-0-0-12-12-0-12-10--12--------0-0-0-0-12-12-0-12--10-12------------------------|
C|-0-0-0-0-12-12-0-12---------------0-0-0-0-12-12-0-12-------------------------------|

CHORUS......

MAIN RIFF.......


AND THATS ALL!!!!

| /  slide up
| \  slide down
| h  hammer-on
| p  pull-off
| ~  vibrato
| +  harmonic
| x  Mute note   MY TAB MIGHT BE A LITTLE HARD TO UNDERSTAND SO FEEL FREE TO EMAIL
===============================================================================
Comments