Shinedown - Simple Man Chords & Tabs

 

Simple Man Chords & Tabs

Shinedown Chords & Tabs

Version: 7 Type: Tab 0 ratings
1 star 2 stars 3 stars 4 stars 5 stars
comments

Simple Man Tab

   
-------------------------------------------------------------------------------
			     Simple Man - Shinedown
-------------------------------------------------------------------------------
Tabbed by: Michael O'Rourke
Email: m3orourke@comcast.net

    I have searched for an acurate tab of this song and have not been able to find one,
and no where did I find the solos, so i tabbed it out myself and there is practicaly no
error in this TAB. Enjoy...

Tuning:standard

   Intro:
e|-----------------------------3---------------------0-003300-0-0------------|
B|------1--0------------1--1-----1------1--0---------1-113311-1-1------------|
G|-----0-0------0--0---2-2---2---------0-0------0--0-2-220022-2-2------------|
D|----2---2----0-0----2---2---2-------2---2----0-0---2-220022-2-2------------|
A|023---------2---2-0-------------023---------2---2--0-002200-0-0------------|
E|----------3-------------------------------3------------33------------------|

   Verse: 4x
e|-----------------------------3--|
B|------1--0------------1--1-----1|
G|-----0-0------0--0---2-2---2----|
D|----2---2----0-0----2---2---2---|
A|023---------2---2-0-------------|
E|----------3---------------------|

   Solo #1: This section could be played without the 2nd guitar part and most 
            people wouldn't notice.
e|----------------3/5---------------3----------------------0-003300-0-0------|
B|-----------0--------0-1--0h1p0-0-1-------------0----0----1-113311-1-1------|
G|-------------------0--2------------0-------------------0-2-220022-2-2------|
D|-----0h2p0-----0------2-------2----------0h2p0-----0-0---2-220022-2-2------|
A|023-------3---2-------0-0-----------023-------3---2---2--0-002200-0-0------|
E|------------3-----------------------------------3------------33------------|

   guitar #2
e|---------------------------------------------------------------------------|
B|---------------------------------------------------------------------------|
G|---------------------------------------------------------------------------|
D|---------------------------------------------------------------------------|
A|023--/7-5\3---/7-5\3-------------023--/7-5\3---/7-5\3----------------------|
E|-----------3--------/5-3h5p3-3h5-------------3--------/5-3h5p3-3h5---------|

   Verse: 2x
e|-----------------------------3--|
B|------1--0------------1--1-----1|
G|-----0-0------0--0---2-2---2----|
D|----2---2----0-0----2---2---2---|
A|023---------2---2-0-------------|
E|----------3---------------------|

   Same Verse: 1x
e|-----------------------------3---------------------0-003300-0-0-000--------|
B|------1--0------------1--1-----1------1--0---------1-113311-1-1-111--------|
G|-----0-0------0--0---2-2---2---------0-0------0--0-2-220022-2-2-222--------|
D|----2---2----0-0----2---2---2-------2---2----0-0---2-220022-2-2-222--------|
A|023---------2---2-0-------------023---------2---2--0-002200-0-0-000--------|
E|----------3-------------------------------3------------33------------------|
   
   Chorus: The chorus section is simple it's a C, G, Am progression


     C: e|-0-|
	B|-1-|
	G|-0-|
	D|-2-|
	A|-3-|
	E|---|
[ Tab from: http://www.guitartabs.cc/tabs/s/shinedown/simple_man_tab_ver_7.html ]
     G:	e|-3-|	
	B|-3-|
	G|-0-|
	D|-0-|
	A|-2-|
	e|-3-|

    Am:	e|-0-|
	B|-1-|
	G|-2-|
	D|-2-|
	A|-0-|
	E|---|

   solo #2: Again second guitar if unplayed will most likely go unnoticed

e|-------------------------------3-----------------------0-003300-0-0--------|
B|-----------0----0--0-----1--0-1--------------0----0----1-113311-1-1--------|
G|-----------------0-------2--2-2--0-----------------0-0-2-220022-2-2--------|
D|-----0h2p0-----0--0----2--2------------0h2p0-----0--0--2-220022-2-2--------|
A|023-------3---2------0------------023-------3---2------0-002200-0-0--------|
E|------------3---------------------------------3------------33--------------|

   guitar #2
e|---------------------------------------------------------------------------|
B|---------------------------------------------------------------------------|
G|---------------------------------------------------------------------------|
D|---------------------------------------------------------------------------|
A|023--/7-5\3---/7-5\3-------------023--/7-5\3---/7-5\3----------------------|
E|-----------3--------/5-3h5p3-3h5-------------3--------/5-3h5p3-3h5---------|

   Verse: 2x
e|-----------------------------3--|
B|------1--0------------1--1-----1|
G|-----0-0------0--0---2-2---2----|
D|----2---2----0-0----2---2---2---|
A|023---------2---2-0-------------|
E|----------3---------------------|

   Same Verse: 1x
e|-----------------------------3---------------------0-003300-0-0-000--------|
B|------1--0------------1--1-----1------1--0----0----1-113311-1-1-111--------|
G|-----0-0------0--0---2-2---2---------0-0---------0-2-220022-2-2-222--------|
D|----2---2----0-0----2---2---2-------2---2----0-0---2-220022-2-2-222--------|
A|023---------2---2-0-------------023---------2---2--0-002200-0-0-000--------|
E|----------3-------------------------------3------------33------------------|
   
   Chorus


   Solo #1


   Verse: 2x
e|-----------------------------3--|
B|------1--0------------1--1-----1|
G|-----0-0------0--0---2-2---2----|
D|----2---2----0-0----2---2---2---|
A|023---------2---2-0-------------|
E|----------3---------------------|

   Same Verse: 1x
e|-----------------------------3---------------------0-003300-0-0-000--------|
B|------1--0------------1--1-----1------1--0----0----1-113311-1-1-111--------|
G|-----0-0------0--0---2-2---2---------0-0---------0-2-220022-2-2-222--------|
D|----2---2----0-0----2---2---2-------2---2----0-0---2-220022-2-2-222--------|
A|023---------2---2-0-------------023---------2---2--0-002200-0-0-000--------|
E|----------3-------------------------------3------------33------------------|

   Chorus 1x *After the chorus play the progression 1 more time then insert
              this slowing down drasticly by the end
e|-----------------------------3-----|
B|-1---1--0----0-----------1-----1---|
G|-0----0-------0--------2---2-----2-|
D|-2--2--2----0--0------2------------|
A|-3-3-------2-------0---------------|
E|---------3-------------------------|


| /  slide up
| \  slide down
| h  hammer-on
| p  pull-off
| ~  vibrato
| +  harmonic
| x  Mute note
===============================================================================
Comments