Shinedown - Simple Man Chords & Tabs

 

Simple Man Chords & Tabs

Shinedown Chords & Tabs

Version: 1 Type: Tab 3 ratings
1 star 2 stars 3 stars 4 stars 5 stars
comments

Simple Man Tab

   
Artist:Shine Down
Song:Simple Man
Tabbed by: JR SAN DIEGO


Ok heres the new ripped off version of simple man origionaly done by
Lynard Skynard





Intro:(clean)
        (Cb)             (Gb)             (Abmin7)
eb:|---|----------------|----------------|----------------|---------3------|
Bb:|---|---------1------|----------------|---------1------|---1-------1----|
Gb:|---|---0-------0---0|---------0------|---2-------2---2|-----2----------|
Db:|---|-----2-------2--|---0-------0---0|-----2-------2--|-------2--------|
Ab:|0-2|-3-----3--------|-----2-------2--|-0-----0--------|-0-----------0-2|
Eb:|---|----------------|-3-----3--------|----------------|----------------|

repeat once, then another guitar comes in with something like this...
        (Cb)             (Gb)             (Abmin7)
eb:|---|----------------|----------------|----------------|-------3--------|
Bb:|---|-------1--------|----------------|-------1-------1|-----------1----|
Gb:|---|---0-------0---0|-------0--------|---2-------2----|---2------------|
Db:|---|-----2-------2--|---0-------0---0|-----2-------2--|-----2----------|
Ab:|0-2|-3--------------|-----2-------2--|-0--------------|-------------0-2|
Eb:|---|----------------|-3--------------|----------------|----------------|

then everything plus this plays:
(semi-distortion)
eb:|---|-------------|-------------|--------------|---------------|
Bb:|---|-------------|-------------|--------------|---------------|
Gb:|---|-------------|-------------|--------------|---------------|
Db:|---|-----------2-|-------------|--------------|---------------|
Ab:|0-2|3----3-------|-----------2-|0-----0----0--|0-----0-----0-2|(3)
Eb:|---|-------------|3-----3------|--------------|---------------|




Verse:

The two clean intro parts play thier
lick 4 times.




Interlude
(very heavy)
eb:|----|----------------|---------------|---------------|----------------|
Bb:|----|----------------|---------------|---------------|----------------|
Gb:|----|----------------|---------------|---------------|----------------|
Db:|----|----------------|---------------|---------------|----------------|
Ab:|0-2-|-3------5b7r5-3-|-------5b7r5-3-|(0)------------|-----------(0-2)|
Eb:|----|----------------|-3-------------|-5-----0--3--0-|-3//5----(0)----|



Repeat again, then play verse again.





Chorus:
(heavy) Cb5->         Gb5->          Ab5->
eb:|----------------|--------------|---------------|-------------|
Bb:|----------------|--------------|---------------|-------------|
Gb:|----------------|--------------|---------------|-------------|
Db:|-10---------10\|-5---------5--|-7-------------|-7--------X--|
Ab:|-10---------10\|-5---------5--|-7-------------|-7--------X--|
Eb:|-8----------8\|-3---------3--|-5-------0-3-0-|-5--------X--|




play this 3 more times.


There are two guitars playing this, and on the last and maybe the second
to last repeat, one sounds like it goes up an octave (12 frets higher)
to play the Gb5 chord.

like:
      Cb5->           Gb5->            Ab5->
eb:|----------------|----------------|---------------|-------------|
Bb:|----------------|----------------|---------------|-------------|
Gb:|----------------|----------------|---------------|-------------|
Db:|-10---------10//|(17)-------(17)-|-7-------------|-7--------X--|
Ab:|-10---------10//|-17---------17--|-7-------------|-7--------X--|
Eb:|-8----------8///|-15---------15--|-5-------0-3-0-|-5--------X--|

I'm not sure if it does, but I think so.
(The bass does for sure) You decide.





repeat the verse again.
repeat the chorus again.




[ Tab from: http://www.guitartabs.cc/tabs/s/shinedown/simple_man_tab.html ]
Guitar Solo:
(Rythm:)
(plays:)Ab->    Cb->                     Gb->
eb:|----------|--------------------------------------------------|
Bb:|----------|--------------------------------------------------|
Gb:|------5-7-|-7b9===========--7b9r7-5--7---------------7b9r7-5-|
Db:|----------|--------------------------------------------------|
Ab:|----------|--------------------------------------------------|
Eb:|----------|--------------------------------------------------|

     Ab->                             Cb->                    Gb->
eb:|------------------8--------------|--------------------------------------
-|
Bb:|--------8-10-10(//13)10=---------|20--------20--------------------------
-|
Gb:|----//9---------------------17-19|19b21=====--19b21r19-17-19--19b21r19-1
7|
Db:|7===--------------------//19-----|--------------------------------------
-|
Ab:|---------------------------------|--------------------------------------
-|
Eb:|---------------------------------|--------------------------------------
-|

     Ab->
eb:|----------------17--19bb20bb20bbb21--20bb--17---|
Bb:|---20b22=====-17-----------------------------17-|
Gb:|------------------------------------------------|
Db:|-19---------------------------------------------|
Ab:|------------------------------------------------|
Eb:|------------------------------------------------|

     Cb->                      Gb->
eb:|------------------------------------------17--|
Bb:|-20b22=======--20b22r20-17-20-----------------|
Gb:|------------------------------------19b21==---|
Db:|----------------------------------------------|
Ab:|----------------------------------------------|
Eb:|----------------------------------------------|

     Ab->
eb:|---------------17--------------17---------17----------------|
Bb:|-20b22r----------20b22r----------20b22r-17--17-20b22--------|
Gb:|---------19b21==---------19b21==------------------------5-7-|
Db:|------------------------------------------------------7-----|
Ab:|------------------------------------------------------------|
Eb:|------------------------------------------------------------|

     Cb->                     Gb->
eb:|--------------------------------------5--|
Bb:|--------------10-----------------------5-|
Gb:|-7b9r7b9====-----7b9r7-5-7b9r7====-7b9---|
Db:|-----------------------------------------|
Ab:|-----------------------------------------|
Eb:|-----------------------------------------|

     Ab->
eb:|----------------------------------------------|
Bb:|-8b10====-------------------------------------|
Gb:|----------------------------------------17-19-|
Db:|-------------------------------17-17h19-------|
Ab:|---------------15-17-17//19-19----------------|
Eb:|----------//17--------------------------------|

     Cb->                Gb->
eb:|------------------------------------------------|
Bb:|----------------20---------------20-------------|
Gb:|-19b21====---------19b21r19====-----19b21r19-17-|
Db:|-----------///19--------------------------------|
Ab:|------------------------------------------------|
Eb:|------------------------------------------------|

     Ab->
eb:|------------------------------------|
Bb:|-20b22=======--8--------------------|
Gb:|-----------------7b9r7-5------------|
Db:|-------------------------7----------|
Ab:|--------------------------------0-2-|
Eb:|------------------------------------|

Interlude:
(lighter than before, and clean riffs return.)
eb:|----------------|---------------|---------------|-----------------|
Bb:|----------------|---------------|---------------|-----------------|
Gb:|----------------|---------------|---------------|-----------------|
Db:|----------------|---------------|---------------|-----------------|
Ab:|-3------5b7r5-3-|-------5b7r5-3-|(0)------------|------------(0-2)|
Eb:|----------------|-3-------------|-5-----0--3--0-|-3//5-----(0)----|


Repeat verse
Repeat chorus 1 1/2 times to fade...
Comments