Shinedown - Shed Some Light Chords & Tabs

 

Shed Some Light Chords & Tabs

Shinedown Chords & Tabs

Version: 2 Type: Tab

Shed Some Light Tab

Sorry, this is my first tab...Not sure how to explain the tune either,
please comment on this, thanks....rock on.




INTRO:
~~~~~~~~~~~~~~~~~~~~~~~~~~~~~~~~~~~~~~~~~~~~~~~~~~~~~~~~~~~~~~~~~~~~~~
e|--------0-0-0-0---------0-0-0-0----------0-0-0-0--------0-0--------|
B|--------0-0-0-0---------1-1-1-1----------0-0-0-0--------0-0--------|
G|--------1-1-1-1---------0-0-0-0----------4-4-4-4--------7-7--------|
D|---2------2-2-2------2----2-2-2-------5----5-5-5------7---7--------|
A|--2-----------------3-----3-3-3------5---------------5-------------|
E|-0-----------------0----------------3---------------0--------------|


[ Tab from: http://www.guitartabs.cc/tabs/s/shinedown/shed_some_light_tab_ver_2.html ]
Verses:
~~~~~~~~~~~~~~~~~~~~~~~~~~~~~~~~~~~~~~~~~~~~~~~~~~~~~~~~~~~~~~
e|-------0-000----------0-000----------0-000---------0-000---|
B|-------0-000----------1-111----------0-000---------0-000---|
G|-------1-111----------0-000----------0-000---------7-777---|
D|---2---2-222------2---2-222------5---5-555-----7---7-777---| x5
A|--2----2-222-----3----3-333-----5----5-555----5----5-555---|
E|-0-----0-000----0-----0-000----3-----3-333---0-----0-000---|


Chorus:
~~~~~~~~~~~~~~~~~~~~~~~~~
E|----0-0-000--0-0-000--|
B|----0-0-000--1-1-111--|
G|----1-1-111--0-0-000--|
D|----2-2-222--2-2-222--|  x5
A|----2-2-222--3-3-333--|
E|----0-0-000--0-0-000--|