Shinedown - Shed Some Light Chords & Tabs

 

Shed Some Light Chords & Tabs

Shinedown Chords & Tabs

Version: 1 Type: Tab

Shed Some Light Tab

Band: Shinedown                               
Song: Shed Some Light                     
Album: Us And Them
Tabbed by Steve Hammonds
Date  10/23/05

This is my first tab so corrections and comments are more than welcome.
Tuned half a step down.Acoustic
*Intro*                         
E|---------0-0-0-0---------0-0-0-0----------0-0-0-0--------0-0---------|
B|---------0-0-0-0---------1-1-1-1----------0-0-0-0--------0-0---------|
G|---------1-1-1-1---------0-0-0-0----------4-4-4-4--------6-6---------|
D|---2-------2-2-2------2----2-2-2-------5----5-5-5------7---7---------|
A|--2------------------3-----3-3-3------5---------------5--------------|
E|-0------------------0----------------3---------------0---------------|
[ Tab from: http://www.guitartabs.cc/tabs/s/shinedown/shed_some_light_tab.html ]
*Verse*
E|----0----0----0----0----|              Here are the chords, you'll have 
B|----0----1----0----0----|              to figure out the strumming 
G|----1----0----0----7----|              patterns yourself.
D|----2----2----5----7----|
A|----2----3----5----5----|
E|----0----0----3----0----|

*Chorus*
E|----0----0----|                        Again here are the chords,  
B|----0----1----|                        you'll have to figure out
G|----1----0----|                        the strumming.sry  
D|----2----2----|                         
A|----2----3----|                         
E|----0----0----|                      
                                         Intro-2
                                         Verse-3
                                         Chorus-4
                                         Intro-1
*Outro*                                  Verse-3
E|------------------2----|               Chorus-4
B|---------------0-------|               Verse-4
G|------------0----------|               Chorus-12
D|---------2-------------|               Outro-1
A|------2----------------|
E|---0-------------------|

Questions,comments,corrections are more than welcome 
you can reach me through:
AOL/AIM-leaveawhisper15 
Yahoo Messenger-leaveawhisper15 or sitnwaitnwishing