Shinedown - Save Me Chords & Tabs

 

Save Me Chords & Tabs

Shinedown Chords & Tabs

Version: 3 Type: Bass Tab

Save Me Bass Tab

Tabbed by ANTON AMBROSINO
Tuning:Standard

Intro/Verse
G|--------------------------------------------|
D|--------------------------------------------| 
A|--22222222---55555555-----------------------| 
E|------------------------55555555---33332222-| (x6)

Chorus (0:50)
G|---------------------------------------------|
D|---------------------------------------------|
A|--2222222------------------------------------|
E|------------2222222---55555555----33332222---|(x2) 

Verse (1:05) x5

chorus(1:47)x2


Bridge(2:04)  

G|------------------------------------------------|
D|-----------22-44444444--------------------------|
A|--22-44-55--------------------------------------|
E|-------------------------55555555--33332222-----|(x2)
[ Tab from: http://www.guitartabs.cc/tabs/s/shinedown/save_me_btab_ver_3.html ]
G|--------------------------------------------|
D|--------------------------------------------| 
A|--22222222---55555555-----------------------| 
E|------------------------55555555---33332222-| (x3)

G|------------------------------------------|
D|------------------------------------------| 
A|--22222222---55555555----0-0-0-0----------| 
E|------------------------5-5-5-5--33332222-| 

Outro(2:53)
G|---------------------------------------------|
D|---------------------------------------------|
A|--2222222------------------------------------|
E|------------2222222---55555555----33332222---| (x2)

G|------------------------------------------------|
D|-----------22-44444444--------------------------|
A|--22-44-55--------------------------------------|
E|-------------------------55555555--33332222-----|

G|--------------------------------------------|
D|--------------------------------------------| 
A|--22222222---55555555-----------------------| 
E|------------------------55555555---33332222-| 

Ending(3:26)
G|-----------|
D|-----------| 
A|--22222222-| 
E|-----------|