Shinedown - Lost In The Crowd Chords & Tabs

 

Lost In The Crowd Chords & Tabs

Shinedown Chords & Tabs

Version: 1 Type: Tab 0 ratings
1 star 2 stars 3 stars 4 stars 5 stars
comments

Lost In The Crowd Tab

   
-------------------------------------------------------------------------------
			  LOST IN THE CROWD - SHINEDOWN
-------------------------------------------------------------------------------
Tabbed by:brandonbray2002
Email:brandonbray2002@yahoo.com

Tuning:DADGBE
     intro    alternate between thses two chords
e|-0---0-----------------------------------------------------------------------------|
B|-3---3-----------------------------------------------------------------------------|
G|-2---0--------------pre chorus build----3-----5------------------------------------|
D|-0---0----------------------------------1///--3-/////------------------------------|
A|-0---3----------------------------------1-----3------------------------------------|
D|-----------------------------------------------------------------------------------|


  distortion     chorus
e|---------------------------------------------------------------------------------------|
B|-3-------------------------------------------------------------------------------------|
G|-2----5------3-------h---pm------------------------------------------------------------|
D|-0----5////--3////--0--3-33---5--------------------------------------------------------|
A|-0----3------1------0--3-33---5--------------------------------------------------------|
D|-0------------------0--3-33---5--0-320-------------------------------------------------|


 second verse start by picking chords
e|-0-------------------------------------------------------------------------------|
B|-3---3---------------------------------------------------------------------------|
G|-2---0--------------------------------------------------3----5-------------------|
D|-0---0--------then play same chords as first verse------3////5/////--------------|
A|-0---3--------------------------------------------------1----3-------------------|
D|---------------------------------------------------------------------------------|
[ Tab from: http://www.guitartabs.cc/tabs/s/shinedown/lost_in_the_crowd_tab.html ]
 second chorus same as first
e|---------------------------------------------------------------------------|
B|---------------------------------------------------------------------------|
G|---------------------------------------------------------------------------|
D|---------------------------------------------------------------------------|
A|---------------------------------------------------------------------------|
D|---------------------------------------------------------------------------|

interlude

e|------------------------------------------------------------------------------------|
B|------------------------------------------------------------------------------------|
G|------------------------------------------------------------------------------------|
D|-----------------32 0---------------------------------------------------------------|
A|-----5------------------------repeat------------------------------------------------|
d|-000-------00 0---------------------------------------------------------------------|


rythem under solo
e|---------------------------------------------------------------------------------------|
B|---------------------------------------------------------------------------------------|
G|-3-----5------3------5--3--------pm----------------------------------------------------|
D|-3////-5/////-3////--5//3------3-33--5-------------------------------------------------|
A|-1-----3------1------3--1------3-33--5-------------------------------------------------|
D|-----------------------------0-3-33--5---3 320-----------------------------------------|


then back to chorus
e|---------------------------------------------------------------------------|
B|---------------------------------------------------------------------------|
G|---------------------------------------------------------------------------|
D|---------------------------------------------------------------------------|
A|---------------------------------------------------------------------------|
D|---------------------------------------------------------------------------|

e|---------------------------------------------------------------------------|
B|---------------------------------------------------------------------------|
G|---------------------------------------------------------------------------|
D|---------------------------------------------------------------------------|
A|---------------------------------------------------------------------------|
E|---------------------------------------------------------------------------|
  if u have questions or comments feel free to write!!!

| /  slide up
| \  slide down
| h  hammer-on
| p  pull-off
| ~  vibrato
| +  harmonic
| x  Mute note
===============================================================================
Comments