Shinedown - Lost In A Crowd Chords & Tabs

 

Lost In A Crowd Chords & Tabs

Shinedown Chords & Tabs

Version: 1 Type: Bass Tab 0 ratings
1 star 2 stars 3 stars 4 stars 5 stars
comments

Lost In A Crowd Bass Tab

Band- Shinedown
Song- Lost In A Crowd

Tuning Drop D (DADG)

Intro- 0:08
G------------------------------------------|
D------------------------------------------|
A---------3~-------3~-------0-3-5----------|
D--12\0~-------0~-----------------0--------|

Verse-
G------------------------------------------|
D------------------------------------------| You can play around with this and add fills 
A---------3--3-5--------3--3-5-------------| what i have probally isn't completely right  
D--0--3-5--------0--3-5--------0--3-5-0----| but thats what fills are for.
[ Tab from: http://www.guitartabs.cc/tabs/s/shinedown/lost_in_a_crowd_btab.html ]
Prechorus-
G-----------------9999----|
D-------------------------|
A--1~---3~---1~-----------|
D-------------------------|

Chorus-
G-------------------------------|
D------------------------------*|
A------3---1-------------------*|
D--0-----------3-3-3-5--0--3-2--|

Transition/ Bridge- (whatever u wanna call it)
G----------------------------|
D---------------------------*|
A-------5---------8-7---5---*|
D--0-0-----0-0-0-------------|

Guitar Solo-
G------------------------------------------------|
D------------------3-2-0-------------------------|
A--1---3---1---3----------1----------------------|
D-----------------------------3-3-3-5--0--3-2-0--|
Comments