Shinedown - I Dare You Chords & Tabs

 

I Dare You Chords & Tabs

Shinedown Chords & Tabs

Version: 4 Type: Tab

I Dare You Tab

   
===========================================================================
Title: *I Dare You*
Artist: Shinedown
Album: Us and Them
===========================================================================
Writtin by Brent Smith, Brad Stewart and Tony Battaglia
Produced by 'Driven By Music' and 'Big Ant Music, BMI ASCAP'
===========================================================================
Label: Atlantic Records
Year: 2005
===========================================================================
Track: -4-
===========================================================================
Tablaturized by Asa Gaston
===========================================================================
Tuning: STANDARD ( E-A-D-G-B-E )
===========================================================================

INTRO
     G5                G   Dsus4   G   E   Esus4        G   Dsus4   G   E
E|---3--------------------------------------------------------------------|
B|---3--------------------------------------------------------------------|
G|---0-----------------4-4-4-7-7-7-4-4-4-4-4-2-2-2-2-2--4-4-4-7-7-7-4-4-4-|
D|---------------------5-5-5-5-5-5-5-5-2-2-2-2-2-2-2-2--5-5-5-5-5-5-5-5-2-|
A|---------------------5-5-5-5-5-5-5-5-2-2-2-2-2-2-2-2--5-5-5-5-5-5-5-5-2-|
E|------------------------------------------------------------------------|
     E Esus4
E|------------------------------------------------------------------------|
B|------------------------------------------------------------------------|
G|---4-4-2-2-2-2-2--------------------------------------------------------|
D|---2-2-2-2-2-2-2--------------------------------------------------------|
A|---2-2-2-2-2-2-2--------------------------------------------------------|
E|------------------------------------------------------------------------|

VERSE 
     G   Dsus4   G   E   Esus4        G   Dsus4   G   E   Esus4 
E|------------------------------------------------------------------------|
B|------------------------------------------------------------------------|
G|---4-4-4-7-7-7-4-4-4-4-4-2-2-2-2-2--4-4-4-7-7-7-4-4-4-4-4-2-2-2-2-2-----|
D|---5-5-5-5-5-5-5-5-2-2-2-2-2-2-2-2--5-5-5-5-5-5-5-5-2-2-2-2-2-2-2-2-----|
A|---5-5-5-5-5-5-5-5-2-2-2-2-2-2-2-2--5-5-5-5-5-5-5-5-2-2-2-2-2-2-2-2-----|
E|------------------------------------------------------------------------|

     G   Dsus4   G   E   Esus4        G   Dsus4   G   E   Esus4     
E|------------------------------------------------------------------------|
B|------------------------------------------------------------------------|
G|---4-4-4-7-7-7-4-4-4-4-4-2-2-2-2-2--4-4-4-7-7-7-4-4-4-4-4-2-2-2-2-2-----|
D|---5-5-5-5-5-5-5-5-2-2-2-2-2-2-2-2--5-5-5-5-5-5-5-5-2-2-2-2-2-2-2-2-----|
A|---5-5-5-5-5-5-5-5-2-2-2-2-2-2-2-2--5-5-5-5-5-5-5-5-2-2-2-2-2-2-2-2-----|
E|------------------------------------------------------------------------|

     G   Dsus4   G   E   Esus4        G   Dsus4   G   E   Esus4 
E|------------------------------------------------------------------------|
B|------------------------------------------------------------------------|
G|---4-4-4-7-7-7-4-4-4-4-4-2-2-2-2-2--4-4-4-7-7-7-4-4-4-4-4-2-2-2-2-2-----|
D|---5-5-5-5-5-5-5-5-2-2-2-2-2-2-2-2--5-5-5-5-5-5-5-5-2-2-2-2-2-2-2-2-----|
A|---5-5-5-5-5-5-5-5-2-2-2-2-2-2-2-2--5-5-5-5-5-5-5-5-2-2-2-2-2-2-2-2-----|
E|------------------------------------------------------------------------|

PRE-CHORUS
     D                Em               C      Bm     C      Bm     C    Bm 
E|---5-5-5-5-5-5-5-5--7-7-7-7-7-7-7-7--3-3-3--2-2-2--3-3-3--2-2-2--3-3--2-|
B|---7-7-7-7-7-7-7-7--8-8-8-8-8-8-8-8--5-5-5--3-3-3--5-5-5--3-3-3--5-5--3-|
G|---7-7-7-7-7-7-7-7--9-9-9-9-9-9-9-9--5-5-5--4-4-4--5-5-5--4-4-4--5-5--4-|
D|---7-7-7-7-7-7-7-7--9-9-9-9-9-9-9-9--5-5-5--4-4-4--5-5-5--4-4-4--5-5--4-|
A|---5-5-5-5-5-5-5-5--7-7-7-7-7-7-7-7--3-3-3--2-2-2--3-3-3--2-2-2--3-3--2-|
E|---5-5-5-5-5-5-5-5--7-7-7-7-7-7-7-7--3-3-3--2-2-2--3-3-3--2-2-2--3-3--2-|

     Bm D                Em               C                D
E|---2--5-5-5-5-5-5-5-5--7-7-7-7-7-7-7-7--3-3-3-3-3-3-3-3--5-5---5-5-5----|
B|---3--7-7-7-7-7-7-7-7--8-8-8-8-8-8-8-8--5-5-5-5-5-5-5-5--7-7---7-7-7----|
G|---4--7-7-7-7-7-7-7-7--9-9-9-9-9-9-9-9--5-5-5-5-5-5-5-5--7-7---7-7-7----|
D|---4--7-7-7-7-7-7-7-7--9-9-9-9-9-9-9-9--5-5-5-5-5-5-5-5--7-7---7-7-7----|
A|---2--5-5-5-5-5-5-5-5--7-7-7-7-7-7-7-7--3-3-3-3-3-3-3-3--5-5---5-5-5----|
E|---2--5-5-5-5-5-5-5-5--7-7-7-7-7-7-7-7--3-3-3-3-3-3-3-3--5-5---5-5-5----|

CHORUS
     G   D   C   G   D   C   Bm  C   G   D   C   G   D   C
E|---3---5---3---3---5---3---2---3---3---5---3---3---5---3-----------------|
B|---3---7---5---3---7---5---3---5---3---7---5---3---7---5-----------------|
G|---4---7---5---4---7---5---4---5---4---7---5---4---7---5-----------------|
D|---5---7---5---5---7---5---4---5---5---7---5---5---7---5-----------------|
A|---5---5---3---5---5---3---2---3---5---5---3---5---5---3-----------------|
E|---3---5---3---3---5---3---2---3---3---5---3---3---5---3-----------------|

INTERLUDE
     G   Dsus4   G   E   Esus4        G   Dsus4   G   E   Esus4
E|------------------------------------------------------------------------|
B|------------------------------------------------------------------------|
G|---4-4-4-7-7-7-4-4-4-4-4-2-2-2-2-2--4-4-4-7-7-7-4-4-4-4-4-2-2-2-2-2-----|
D|---5-5-5-5-5-5-5-5-2-2-2-2-2-2-2-2--5-5-5-5-5-5-5-5-2-2-2-2-2-2-2-2-----|
A|---5-5-5-5-5-5-5-5-2-2-2-2-2-2-2-2--5-5-5-5-5-5-5-5-2-2-2-2-2-2-2-2-----|
E|------------------------------------------------------------------------|

VERSE II (NOTE: The guitaring in verse 2 is the same as verse 1. This is
                the second guitaring; as well as the pre-chorus)

E|------------------------------------------------------------------------|
B|------------------------------------------------------------------------|
G|---7---7---9---9---11---11---9---9---7---7---9---9---11---11---9---9----|
D|-----9---9---9---9----9----9---9---9---9---9---9---9----9----9---9---9--|
A|------------------------------------------------------------------------|
E|------------------------------------------------------------------------|
[ Tab from: http://www.guitartabs.cc/tabs/s/shinedown/i_dare_you_tab_ver_4.html ]
E|------------------------------------------------------------------------|
B|------------------------------------------------------------------------|
G|---7---7---9---9---11---11---9---9--------------------------------------|
D|-----9---9---9---9----9----9---9---9------------------------------------|
A|------------------------------------------------------------------------|
E|------------------------------------------------------------------------|

PRE-CHORUS

E|-----3---5--3--2---2--3--5--3-----10h12p10------------------------------|
B|---3---3---------3-------------------------13--12h13p12-----------------|
G|--------------------------------------------------------12--11h12p11----|
D|---------------------------------------------------------------------10-|
A|------------------------------------------------------------------------|
E|------------------------------------------------------------------------|

E|---------------------3---5--3--2---2--3--5--3---10h12p10----------10/14-|
B|-------------------3---3---------3-----------------------13-12-10-------|
G|------------------------------------------------------------------------|
D|---9-9-10-10-9----------------------------------------------------------|
A|------------------------------------------------------------------------|
E|------------------------------------------------------------------------|

E|---14---14-14-14--------------------------------------------------------|
B|------------------------------------------------------------------------|
G|------------------------------------------------------------------------|
D|------------------------------------------------------------------------|
A|------------------------------------------------------------------------|
E|------------------------------------------------------------------------|

CHORUS
     G   D   C   G   D   C   Bm  C   G   D   C   G   D   C
E|---3---5---3---3---5---3---2---3---3---5---3---3---5---3-----------------|
B|---3---7---5---3---7---5---3---5---3---7---5---3---7---5-----------------|
G|---4---7---5---4---7---5---4---5---4---7---5---4---7---5-----------------|
D|---5---7---5---5---7---5---4---5---5---7---5---5---7---5-----------------|
A|---5---5---3---5---5---3---2---3---5---5---3---5---5---3-----------------|
E|---3---5---3---3---5---3---2---3---3---5---3---3---5---3-----------------|

SOLO

E|-------------------------------------------------------------------------|
B|-------5-5-7-7-8-8-7-7-8-8-10-10-12-12-10-10-12-12-13-13-12-12-10h12p10--|
G|---7-7-------------------------------------------------------------------|
D|-------------------------------------------------------------------------|
A|-------------------------------------------------------------------------|
E|-------------------------------------------------------------------------|

E|-----------------------------------------------8-8-10-10-10-10-----------|
B|---8-10h12-8---8-7-----5-5-7-7-8-8-10-10-12-12---------------------------|
G|-------------------7-7---------------------------------------------------|
D|-------------------------------------------------------------------------|
A|-------------------------------------------------------------------------|
E|-------------------------------------------------------------------------|

BRIDGE

E|-------------------------------------------------------------------------|
B|-------------------------------------------------------------------------|
G|---4-4-4-7-7-7-4-4-4-4-4-2-2-2-2-2--4-4-4-7-7-7-4-4-4-4-4-2-2-2-2-2------|
D|---5-5-5-5-5-5-5-5-2-2-2-2-2-2-2-2--5-5-5-5-5-5-5-5-2-2-2-2-2-2-2-2------|
A|---5-5-5-5-5-5-5-5-2-2-2-2-2-2-2-2--5-5-5-5-5-5-5-5-2-2-2-2-2-2-2-2------|
E|-------------------------------------------------------------------------|

CHORUS
     G   D   C   G   D   C   Bm  C   G   D   C   G   D   C
E|---3---5---3---3---5---3---2---3---3---5---3---3---5---3-----------------|
B|---3---7---5---3---7---5---3---5---3---7---5---3---7---5-----------------|
G|---4---7---5---4---7---5---4---5---4---7---5---4---7---5-----------------|
D|---5---7---5---5---7---5---4---5---5---7---5---5---7---5-----------------|
A|---5---5---3---5---5---3---2---3---5---5---3---5---5---3-----------------|
E|---3---5---3---3---5---3---2---3---3---5---3---3---5---3-----------------|

INTERLUDE ( Thier is a second solo right here, but for now, I gave you
            the second guitar played during it. At least until I can
            update it. )

E|------------------------------------------------------------------------|
B|------------------------------------------------------------------------|
G|---4-4-4-7-7-7-4-4-4-4-4-2-2-2-2-2--4-4-4-7-7-7-4-4-4-4-4-2-2-2-2-2-----|
D|---5-5-5-5-5-5-5-5-2-2-2-2-2-2-2-2--5-5-5-5-5-5-5-5-2-2-2-2-2-2-2-2-----|
A|---5-5-5-5-5-5-5-5-2-2-2-2-2-2-2-2--5-5-5-5-5-5-5-5-2-2-2-2-2-2-2-2-----|
E|------------------------------------------------------------------------|

OUTRO
     G   D   C   G   D   C
E|---3---5---3---3---5---3------------------------------------------------|
B|---3---7---5---3---7---5------------------------------------------------|
G|---4---7---5---4---7---5------------------------------------------------|
D|---5---7---5---5---7---5------------------------------------------------|
A|---5---5---3---5---5---3------------------------------------------------|
E|---3---5---3---3---5---3------------------------------------------------|

+++++++++++++++++++++++++++++++++++++++++++++++++++++++++++++++++++++++++++
Lyrics
+++++++++++++++++++++++++++++++++++++++++++++++++++++++++++++++++++++++++++

Hello, let me introduce you to
The characters in the show
One says yes, one says no
Decide - which voice in your head you can keep alive

Even in madness, I know you still believe
Paint me your canvas so I become
What you could never be

I dare you to tell me to walk through the fire
Brand my soul and call me a liar
I dare you to tell me to walk through the fire
I dare you to tell me
I dare you to

Hello, are you still chasing
The memories in shadows
Some stay young, some grow old
Come alive, there are thoughts unclear
You can never hide

Even in madness, I know you still believe
Paint me your canvas so I become
What you could never be

I dare you to tell me to walk through the fire
Brand my soul and call me a liar
I dare you to tell me to walk through the fire
I dare you to tell me
I dare you to

Hello
Hello...
I dare you to tell me to walk through the fire
Brand my soul and call me a liar
I dare you to tell me to walk through the fire
I dare you to tell me
I dare you to
Hello...
Hello...
I dare you to tell me
I dare you to
I dare you to tell me
I dare you to

+++++++++++++++++++++++++++++++++++++++++++++++++++++++++++++++++++++++++++
NOTE: Not a bad song. I think 'Save Me' should be No.4 on the Mainstream
      rock tracks rather than this one. But it's a pretty good song. I
      still need to update a couple of thing if you didn't notice. But
      that'lle come in good time. In the meantime, PLAY IT UP!!!!!!!!!!!!
      Well... ...ENJOY!!!

                           -Asa