Shinedown - Heroes Chords & Tabs

 

Heroes Chords & Tabs

Shinedown Chords & Tabs

Version: 2 Type: Tab

Heroes Tab

-------------------------------------------------------------------------------
			     Heroes - Shinedown
-------------------------------------------------------------------------------
Tabbed by: Shaw
Email: shawj13@yahoo.com

Tuning: Drop D

                                             **PLEASE READ BEFORE VIEWING**
This is my first tab and as you can probably see, its a little messy. Some things i
should explain before you look at this tab.  The entire Intro is played all the way
through once, but then the first section is played once more before the verse.  The
first section ends after the 0-3-5b-3 on the Low D string. Also, no strumming patters
or timings are included in this tab, so listen to the chorus and verse for timings.
Finally, the guitar switches back to the intro riff a lot in this song.  I tried to
point out where they do it each time. I believe that this tab is close to 100% correct.
 Email me for questions.  Thanks...

Bass at start of song, guitar comes in with this little riff.

INTRO
e|--------------|---------------------------------------------------------------|
B|--------------|---------------------------------------------------------------|
G|--------------|---------------------------------------------------------------|
D|----3-5-5b-3-|----------------------------------------------------------------|
A|-/5-----------|---------------------------------------------------------------|
D|--------------|-0-10-12-0-10-12-0-10-12-0-10-12-0-10-12(ring)-----------------|

e|-----------------------------------------------------------------------------|
B|-----------------------------------------------------------------------------|
G|-----------------------------------------------------------------------------|
D|-----------------------------------------------------------------------------|
A|-----------------------------------------------------------------------------|
D|-0-10-12-0-10-12-0-10-12-0-3-5-5b-3------------------------------------------|

e|-----------------------------------------------------------------------------|
B|-----------------------------------------------------------------------------|
G|-----------------------------------------------------------------------------|
D|-----------------------------------------------------------------------------|
A|-----------------------------------------------------------------------------|
E|-0-10-12-0-10-12-0-10-12-0-10-12-0-10-12(ring)-------------------------------|

e|-----------------------------------------------------------------------------|
B|-----------------------------------------------------------------------------|
G|-----------------------------------------------------------------------------|
D|-----------------------------3-5 5b-3----------------------------------------|
A|-----------------------------------------------------------------------------|
E|-0-10-12-0-10-12-0-10-12-0---------------------------------------------------|

Play first section of Intro riff again after playing the entire intro

VERSE   (watch for timing)
e|-----------------------------------------------------------------------------|
B|-----------------------------------------------------------------------------|
G|-2---2-2-2--2----------------------------------------------------------------|
D|-0---0-0-x--x----------------------------------------------------------------|
A|---------3--2--1-1-1-1-------------------------------------------------------|
E|------------------------0-3-5------------------------------------------------|
[ Tab from: http://www.guitartabs.cc/tabs/s/shinedown/heroes_tab_ver_2.html ]
e|-----------------------------------------------------------------------------|
B|-----------------------------------------------------------------------------|
G|-2--2-2-2--2-----------------------------------------------------------------|
D|-0--0-0-x--x-----------------------------------------------------------------|
A|--------3--2-----------------------------------------------------------------|
E|--------------0-2-5-5b-3-----------------------------------------------------|

-Repeat Intro riff before chorus

CHORUS (strumming, timing not included)
e|-----------------------------------------------------------------------------|
B|-----------------------------------------------------------------------------|
G|-5/--7--5--------------------------------------------------------------------|
D|-5/--7--5--3--5--3-----------------------------------------------------------|
A|-3/--5--3--3--5--3-----------------------------------------------------------|
E|----------- 3--5--3----------------------------------------------------------|

e|---------------------------------------------------------------------------------------|
B|---------------------------------------------------------------------------------------|
G|-5/--7--5------------------------------------------------------------------------------|
D|-5/--7--5--3-2/-7(each note gets hit more than once, listen to figure out)-------------|
A|-3/--5--3------------------------------------------------------------------------------|
E|---------------------------------------------------------------------------------------|

e|-----------------------------------------------------------------------------|
B|-----------------------------------------------------------------------------|
G|-7-7--5--3-------------------------------------------------------------------|
D|-7-6--5--3-------------------------------------------------------------------|
A|-5-5--3--1-------------------------------------------------------------------|
E|-----------------------------------------------------------------------------|

e|------------------------------------------------------------------------------|
B|------------------------------------------------------------------------------|
G|-7-7-------------7-7-5-3-3-5-6------------------------------------------------|
D|-7-6--3--5-------7-6-5-3-3-5-6------------------------------------------------|
A|-5-5--3--5-------5-5-3-1-1-3-4------------------------------------------------|
E|------ 3--5-------------------------------------------------------------------|

e|-----------------------------------------------------------------------------|
B|-----------------------------------------------------------------------------|
G|-----------------------------------------------------------------------------|
D|-----------------------------------------------------------------------------|
A|-----------------------------------------------------------------------------|
E|-0-10-12-0-10-12-0-10-12-0-10-12-10-12-10------------------------------------|

e|-----------------------------------------------------------------------------|
B|-----------------------------------------------------------------------------|
G|-----------------------------------------------------------------------------|
D|-----------------------------------------------------------------------------|
A|-5---8/-3-8/---2----1-1-1-1--------------------------------------------------|
E|-----------------------------0-3-5-------------------------------------------|

e|------------------------------------------------------------------------------|
B|------------------------------------------------------------------------------|
G|------------------------------------------------------------------------------|
D|------------------------------------------------------------------------------|
A|-5---8/-3-8/---2--------------------------------------------------------------|
E|------------------0 3 5 5b-3--------------------------------------------------|

Repeat Intro riff

Then repeat the Chorus.

Don't have the solo yet-sorry.

Repeat Chorus after Solo

End with intro riff