Shinedown - Fly From The Inside Chords & Tabs

 

Fly From The Inside Chords & Tabs

Shinedown Chords & Tabs

Version: 5 Type: Tab 0 ratings
1 star 2 stars 3 stars 4 stars 5 stars
comments

Fly From The Inside Tab

   
Artist:	Shinedown
Title:	Fly From the Inside
Album:	Leave A Whisper
Tabber:	ultimate_crow

I saw the other tabs and they almost had it but they didnt sound good so i decided to tab it myself

Intro: 4x
E--------------------------------------------------------|
B--------------------------------------------------------|
G----11-11-11-/-12---12---12---12-/--14-----10-10-9-9----|
D-----x--x--x-/--x----x----x----x-/---x------8--8-8-8-10-|
A-----9--9--9-/-10---10---10---10-/--12------8--8-8-8--8-|
D--------------------------------------------8--8-8-8--8-|


Riff (Distorted): 4x
E-------------------------------------|
B-------------------------------------|
G-------------------------------------|
D-----0-0-8-7-3-0-3h5-0-0-8-7-3-0-3-3-|
A-----0-0-8-7-3-0-3h5-0-0-8-7-3-0-3-3-|
D-----0-0-8-7-3-0-3h5-0-0-8-7-3-0-3-3-|


Verse (Clean) 3X
figure out the struming
e---------------------|
B---------------------|
G-4-4-4-4-4-5-5-5-5-5-|
D-2-2-2-2-2-3-3-3-3-3-|
A-2-2-2-2-2-3-3-3-3-3-|
D-2-2-2-2-2-3-3-3-3-3-|
repeat this ^ 2x on the third time play this ____
						 |
e---------------------------------------------  ---|
B---------------------------------------------  ---|
G-4-4-4-4-4-5-5-5-5-5-7-7-7-7-7-10-10-10-10---  ---|
D-2-2-2-2-2-3-3-3-3-3-5-5-5-5-5--8--8--8--8--- <---|
A-2-2-2-2-2-3-3-3-3-3-5-5-5-5-5--8--8--8--8--------|
D-2-2-2-2-2-3-3-3-3-3-5-5-5-5-5--8--8--8--8--------|


Pre-Chorus (Distorted)
E-----------------------------------------------------------|
B-----------------------------------------------------------|
G-----------------------------------------------------------|
D---5-5-5-5-5-5-5-5-8-8-8-8-8-8-8-8-5-5-5-5-5-5-5-5-8-8-8-8-|
A---5-5-5-5-5-5-5-5-8-8-8-8-8-8-8-8-5-5-5-5-5-5-5-5-8-8-8-8-|
D---5-5-5-5-5-5-5-5-8-8-8-8-8-8-8-8-5-5-5-5-5-5-5-5-8-8-8-8-|


Chorus (Ditorted) 2x
------------------------------------------------------------------|
-----------------------10-10-9-9------5-555-555-55-5-555-555-555--|
-4--4--4-4/5--5-5-5/7--8--8--8-8-10---3-333-333-33-5-555-555-555--|
-0--0--0-0-0--0-0-0-0--8--8--8-8-8----3-333-333-33-3-333-333-333--|
-0--0--0-0-0--0-0-0-0--8--8--8-8-8----3-333-333-33----------------|


Riff (Distorted): 2x
E-------------------------------------|
B-------------------------------------|
G-------------------------------------|
D-----0-0-8-7-3-0-3h5-0-0-8-7-3-0-3-3-|
A-----0-0-8-7-3-0-3h5-0-0-8-7-3-0-3-3-|
D-----0-0-8-7-3-0-3h5-0-0-8-7-3-0-3-3-|

Verse (Clean) 4X
figure out the struming
e---------------------|
B---------------------|
G-4-4-4-4-4-5-5-5-5-5-|
D-2-2-2-2-2-3-3-3-3-3-|
A-2-2-2-2-2-3-3-3-3-3-|
D-2-2-2-2-2-3-3-3-3-3-|
repeat this ^ 3x on the third time play this ____
						 |
e---------------------------------------------  ---|
B---------------------------------------------  ---|
G-4-4-4-4-4-5-5-5-5-5-7-7-7-7-7-10-10-10-10---  ---|
D-2-2-2-2-2-3-3-3-3-3-5-5-5-5-5--8--8--8--8--- <---|
A-2-2-2-2-2-3-3-3-3-3-5-5-5-5-5--8--8--8--8--------|
D-2-2-2-2-2-3-3-3-3-3-5-5-5-5-5--8--8--8--8--------|

[ Tab from: http://www.guitartabs.cc/tabs/s/shinedown/fly_from_the_inside_tab_ver_5.html ]
Pre-Chorus (Distorted)1x
E-----------------------------------------------------------|
B-----------------------------------------------------------|
G-----------------------------------------------------------|
D---5-5-5-5-5-5-5-5-8-8-8-8-8-8-8-8-5-5-5-5-5-5-5-5-8-8-8-8-|
A---5-5-5-5-5-5-5-5-8-8-8-8-8-8-8-8-5-5-5-5-5-5-5-5-8-8-8-8-|
D---5-5-5-5-5-5-5-5-8-8-8-8-8-8-8-8-5-5-5-5-5-5-5-5-8-8-8-8-|


Chorus (Ditorted) 2x
------------------------------------------------------------------|
-----------------------10-10-9-9------5-555-555-55-5-555-555-555--|
-4--4--4-4/5--5-5-5/7--8--8--8-8-10---3-333-333-33-5-555-555-555--|
-0--0--0-0-0--0-0-0-0--8--8--8-8-8----3-333-333-33-3-333-333-333--|
-0--0--0-0-0--0-0-0-0--8--8--8-8-8----3-333-333-33----------------|


Bridge (Distorted)
E----------------------------------|
B----------------------------------|
G----------------------------------|
D---0-0-15-15-0-0-15-15-0-15-0-15--|
A---0-0-15-15-0-0-15-15-0-15-0-15--|
D---0-0-15-15-0-0-15-15-0-15-0-15--|

E----------------------------|
B----------------------------|
G----------------------------|
D---0-0-15-15-0-0-15-15-0-15-|
A---0-0-15-15-0-0-15-15-0-15-|
D---0-0-15-15-0-0-15-15-0-15-|

E----------------------------------|
B----------------------------------|
G----------------------------------|
D---0-0-15-15-0-0-15-15-0-15-0-15--|
A---0-0-15-15-0-0-15-15-0-15-0-15--|
D---0-0-15-15-0-0-15-15-0-15-0-15--|

E------------------------------------------|
B------------------------------------------|
G------------------------------------------|
D---0-0-15-15-0-0-15-15-0-3-6--6-5-3-0-----|
A---0-0-15-15-0-0-15-15-0-3-6--6-5-3-0-----|
D---0-0-15-15-0-0-15-15-0-3-6--6-5-3-0-----|

E----------------------------------|
B----------------------------------|
G----------------------------------|
D---0-0-15-15-0-0-15-15-0-15-0-15--|
A---0-0-15-15-0-0-15-15-0-15-0-15--|
D---0-0-15-15-0-0-15-15-0-15-0-15--|

E-------------------------------|
B-------------------------------|
G-------------------------------|
D---0-0-15-15-0-0-15-15-0-0-0-0-|
A---0-0-15-15-0-0-15-15-0-0-0-0-|
D---0-0-15-15-0-0-15-15-0-0-0-0-|

E----------------------------------|
B----------------------------------|
G----------------------------------|
D---0-0-15-15-0-0-15-15-0-15-0-15--|
A---0-0-15-15-0-0-15-15-0-15-0-15--|
D---0-0-15-15-0-0-15-15-0-15-0-15--|

E-----------------------|
B-----------------------|
G-----------------------|
D---0-0-15-15-0-0-15-15-|
A---0-0-15-15-0-0-15-15-|
D---0-0-15-15-0-0-15-15-|


Intro: 2x
E--------------------------------------------------------|
B--------------------------------------------------------|
G----11-11-11-/-12---12---12---12-/--14-----10-10-9-9----|
D-----x--x--x-/--x----x----x----x-/---x------8--8-8-8-10-|
A-----9--9--9-/-10---10---10---10-/--12------8--8-8-8--8-|
D--------------------------------------------8--8-8-8--8-|


Chorus (Ditorted) 4x
------------------------------------------------------------------|
-----------------------10-10-9-9------5-555-555-55-5-555-555-555--|
-4--4--4-4/5--5-5-5/7--8--8--8-8-10---3-333-333-33-5-555-555-555--|
-0--0--0-0-0--0-0-0-0--8--8--8-8-8----3-333-333-33-3-333-333-333--|
-0--0--0-0-0--0-0-0-0--8--8--8-8-8----3-333-333-33----------------|


Riff (Distorted): 2x
E-------------------------------------|
B-------------------------------------|
G-------------------------------------|
D-----0-0-8-7-3-0-3h5-0-0-8-7-3-0-3-3-|
A-----0-0-8-7-3-0-3h5-0-0-8-7-3-0-3-3-|
D-----0-0-8-7-3-0-3h5-0-0-8-7-3-0-3-3-|

E-----------------------------------------|
B-----------------------------------------|
G-----------------------------------------|
D-----0-0-8-7-3-0-3h5-0-0-8-7-3-0-3-3-3-3-|
A-----0-0-8-7-3-0-3h5-0-0-8-7-3-0-3-3-3-3-|
D-----0-0-8-7-3-0-3h5-0-0-8-7-3-0-3-3-3-3-|

Thats it if u have any questions or comments email me at nethawk_2003@yahoo.com
Comments