Shinedown - Fly From The Inside Chords & Tabs

 

Fly From The Inside Chords & Tabs

Shinedown Chords & Tabs

Version: 4 Type: Tab 0 ratings
1 star 2 stars 3 stars 4 stars 5 stars
comments

Fly From The Inside Tab

Shinedown - Fly From The Inside
Tabbed by Tim Dowland (31_b4_33)
Tuning Dropped D (DADGbe)

---------------
positive about this 3,000,000%
recorded with 2 guitars but I garuntee this is how he does it live!
if you want both guitars tabbed, e-mail me...timdowland@msn.com
no spam bitches! 
---------------

Intro...part 1        10's suck 10's rythem goes (-x-xx9)
e-------------------------------------
B--7-7-77/8-88-8/10-------------------
G--x-x-xx-x-xx-x-x----10-1010-9-------..looks wierd, but try it!
D--4-4-44/5-55-5/7----8--8-88-8-10~~--
A---------------------8--8-88-8-888---
D---------------------8--8-88-8-888---
......  if you listen ^these Bb5 notes stay the same

part 2
e---------------------------------------
B---------------------------------------
G---------------------------------------
D--0-0-8887-3-0-3/555---0-0-8887-3-xx-3- 
A--0-0-8887-3-0-3/555---0-0-8887-3-xx-3-
D--0-0-8887-3-0-3/555---0-0-8887-3-xx-3-

part 2 variation
e--------------------------------------------
B----------------------------------*5*5*5*5--
G----------------------------------*5*5*5*5--
D--0-0-8887-3-0-3/555---0-0-8887-3------------ 
A--0-0-8887-3-0-3/555---0-0-8887-3------------
D--0-0-8887-3-0-3/555---0-0-8887-3------------
[ Tab from: http://www.guitartabs.cc/tabs/s/shinedown/fly_from_the_inside_tab_ver_4.html ]
verse...listen for rythem
e---------------------------------------------------------------
B---------------------------------------------------------------
G--4----4----4----4----2----2p0---4----4----4----4----2----2p0--
D--2-2222-2222----3-3333-3333-----2-2222-2222----3-3333-3333----
A--2-2222-2222----3-3333-3333-----2-2222-2222----3-3333-3333----
D--2-2222-2222-00-3-3333-3333--00-2-2222-2222-00-3-3333-3333----
..................^thumb all 3 strings

pre chorus
e----------------------------------------------------------------------
B----------------------------------------------------------------------
G----------------------------------------------------------------------
D-5-5-5-5-5-5-5-5-8-8-8-8-8-8-8-8-5-5-5-5-5-5-5-5-8-8-8-8-10-10-10-10--
A-5-5-5-5-5-5-5-5-8-8-8-8-8-8-8-8-5-5-5-5-5-5-5-5-8-8-8-8-10-10-10-10--
D-5-5-5-5-5-5-5-5-8-8-8-8-8-8-8-8-5-5-5-5-5-5-5-5-8-8-8-8-10-10-10-10--

chorus w/first 1/2 of piece spread out a bit
------------------------------------------------
---------------------10-10-109~~~~~-----5-555-555-555-555-555-555
-4--4--4/5--5-5-5/7--8--8--8-8-8-8-10~~-3-333-333-335-555-555-555
-0--0--0-0--0-0-0-0--8--8--8-8-8-8-8-8--3-333-333-333-333-333-333
-0--0--0-0--0-0-0-0--8--8--8-8-8-8-8-8--3-333-333-33-------------


Bridge type thing
-------------------------------------------------------------------------
-----6-6-----6-6---------------6-6-----6-6-----------|----|-------|------
-----5-5-----5-5-*5*5*5*5------5-5-----5-5-*5*5*5*5--|----|-------|------
-0-0-3-3-0-0-3-3-*5*5*5*5--0-0-3-3-0-0-3-3-*5*5*5*5--|-03-|0-6-53-|-0333-
-0-0-3-3-0-0-3-3-----------0-0-3-3-0-0-3-3-----------|-03-|0-6-53-|-0333-
-0-0-3-3-0-0-3-3-----------0-0-3-3-0-0-3-3-----------|-03-|0-6-53-|-0333-
                                                 ending ^variations ^pm..
Comments