Shinedown - Crying Out Chords & Tabs

 

Crying Out Chords & Tabs

Shinedown Chords & Tabs

Version: 1 Type: Tab 0 ratings
1 star 2 stars 3 stars 4 stars 5 stars
comments

Crying Out Tab

   
Band- Shinedown
Song- Crying Out

Tuning: Drop D (D A D G B E)

E|---------------------------------------------------------------------------||
B|---------------------------------------------------------------------------||
G|-6666666666666777777777777-6666666666666777777777777-----------------------||
D|-4444444444444444444444444-4444444444444444444444444-----------------------||
A|---------------------------------------------------------------------------||
D|---------------------------------------------------------------------------||

  riff A
E|---------------------------------------------------------------------------||
B|---------------------------------------------------------------------------||
G|---------------------------------------------------------------------------||
D|-2h4-4-4-2h4-4-4--2h4-4--2h4-4-4-2h4-4-4--2h4-4----------------------------||
A|-2h4-4-4-2h4-4-4--2h4-4--2h4-4-4-2h4-4-4--2h4-4----------------------------||
D|-2h4-4-4-2h4-4-4--2h4-4--2h4-4-4-2h4-4-4--2h4-4----------------------------||


  riff A (background)
E|-----------------------------------17-------------------||
B|-----------------------------13/14----13/14-------------||
G|---6-6-6--7-7-7------leads>-----------------------------||
D|--4-4-4--4-4-4------------------------------------------||
A|--------------------------------------------------------||
D|--------------------------------------------------------||
[ Tab from: http://www.guitartabs.cc/tabs/s/shinedown/crying_out_tab.html ]
  verse riff
E|-----------------------------------------------------------------------------||
B|-----------------------------------------------------------------------------||
G|-----------------------------------------------------------------------------||
D|-4p2-2-2--4h2-2-2--4h2--77-22-22---------------------------------------------||
A|-4p2-2-2--4h2-2-2--4h2--77-22-22--repeat-------------------------------------||
D|-4p2-2-2--4h2-2-2--4h2--77-22-22---------------------------------------------||

  chorus riff
E|------------------------------------------------------------------------------||
B|------------------------------------------------------------------------------||
G|------------------------------------------------------------------------------||
D|-0-0-0--0-0-0--2-2-4-4x4------------------------------------------------------||
A|-0-0-0--0-0-0--2-2-4-4x4--repeat----------------------------------------------||
D|-0-0-0--0-0-0--2-2-4-4x4------------------------------------------------------||

 bridge
E|-----------------0--------------------------------------||
B|-2---3---2---2--------repeat----------------------------||
G|---0---0---0---0---0------------------------------------||
D|--------------------------------------------------------||
A|--------------------------------------------------------||
D|--------------------------------------------------------||


E|--------------17-----------------------------------------------------------||
B|--------13/14------------13/14---------------------------------------------||
G|---------------------------------------------------------------------------||
D|-2h4-44----------2h4-44----------------------------------------------------||
A|-2h4-44----------2h4-44----------------------------------------------------||
D|-2h4-44----------2h4-44----------------------------------------------------||

finish on riff A

thats about it
Comments