Shinedown - Burning Bright Chords & Tabs

 

Burning Bright Chords & Tabs

Shinedown Chords & Tabs

Version: 5 Type: Tab 0 ratings
1 star 2 stars 3 stars 4 stars 5 stars
comments

Burning Bright Tab

   
Shinedown is a great band.  Soon to be very famous!  This is a great song...and please
rate/or comment on it!

Tuning: Drop D (D A D G B E)


intro (root of song)

E|----------------------------------------||
B|-------------------------7-8-7----------||
G|-11-11--9--9-----------7-------7--------||
D|-11-11^-9--9--5--5---5------------------||
A|--9--9--7--7--5--5----------------------||
D|--9--9--7--7--5--5----------------------||

lead during intro:
E|--------------------------------------------------------||
B|--7h8p7-7h8p7/3-----------------------------------------||
G|--------------------------------------------------------||
D|--------------------------------------------------------||
A|--------------------------------------------------------||
D|--------------------------------------------------------||
 right before the second verse behind the intro, there\'s another solo:

verse (repeat the intro)
E|----------------------------------------||
B|-------------------------7-8-7----------||
G|-11-11--9--9-----------7-------7--------||
D|-11-11^-9--9--5--5---5------------------||
A|--9--9--7--7--5--5----------------------||
D|--9--9--7--7--5--5----------------------||
[ Tab from: http://www.guitartabs.cc/tabs/s/shinedown/burning_bright_tab_ver_5.html ]
E|---------------0----------------------------------------||
B|--7h8p7-7h8p7----0--7h8p7--8-8/10-10-8-7-5p3------------||
G|--------------------------------------------------------||
D|--------------------------------------------------------||
A|--------------------------------------------------------||
D|--------------------------------------------------------||

pre-chorus 
E|-------------------------------------||
B|-------------------------------------||
G|-------------------------------------||
D|--3----5h7--5h7--5-5-5h7-7/----------||    Lets the 3 on the D,A,D strings ring out
A|--3----5h7--5h7--5-5-5h7-7/----------||
D|--3----5h7--5h7--5-5-5h7-7/----------||

        the chorus
E|--------------------------------------------------------||
B|--------------------------------------------------------||
G|--------------------------------------------------------||
D|-2--2-2-2--5-5-5-5-5--0-0-0-0--7-7-7-7------------------||
A|-2--2-2-2--5-5-5-5-5--0-0-0-0--7-7-7-7------------------||
D|-2--2-2-2--5-5-5-5-5--0-0-0-0--7-7-7-7------------------||

     bridge is the same as the intro
E|----------------------------------------||
B|----------------------------------------||
G|-11-11--9--9----------------------------||
D|-11-11--9--9--5--5----------------------||
A|--9--9--7--7--5--5----------------------||
D|--9--9--7--7--5--5----------------------||

bridge finishes like:
E|------------------||
B|------------------||
G|------------------||  
D|-5-5-5-5-5-5-5-5--||
A|-5-5-5-5-5-5-5-5--||
D|-5-5-5-5-5-5-5-5--||

song ends on:
E|------------------||
B|--5/7-5-3-5-3-----||
G|------------------||
D|------------------||
A|------------------||
D|------------------||
Comments