Shinedown - Burning Bright Chords & Tabs

 

Burning Bright Chords & Tabs

Shinedown Chords & Tabs

Version: 2 Type: Tab 0 ratings
1 star 2 stars 3 stars 4 stars 5 stars
comments

Burning Bright Tab

Shinedown
Leave a whisper
"Burning bright"

Ok, the first version of this song's tab
is good, except it doesn't show the
guitar lick during the intro and verses...

This is what to play during them:
e---------------------------|
b---h--p--------h--p--------|
g-10-11-10----10-11-10--7-4-|
d---------------------------|
a---------------------------|
d---------------------------|
[ Tab from: http://www.guitartabs.cc/tabs/s/shinedown/burning_bright_tab_ver_2.html ]
That lick is played over this:
e---------------------------|
b---------------------------|
g-11-11^--9-9-xx-7----------|
d-11-11^--9-9-xx-7----------|
a-9--9----7-7-xx-5-3/5--3/5-|
d-9--9----7-7-xx-5-3/5--3/5-|


There is also another lick if ya know
it, please comment and tell, cuz i need
to know.. cuz this song is off the hook.

^ bend
x palm mute
h hammer on
p pull off

Thnx.  ~*cinnimini*AR*~
Comments