Shinedown - Beyond The Sun Chords & Tabs

 

Beyond The Sun Chords & Tabs

Shinedown Chords & Tabs

Version: 2 Type: Tab

Beyond The Sun Tab

-------------------------------------------------------------------------------
Beyond the Sun - Shinedown
-------------------------------------------------------------------------------
Tabbed by: Cyrus

Tuning: drop D and down  step
[ Tab from: http://www.guitartabs.cc/tabs/s/shinedown/beyond_the_sun_tab_ver_2.html ]
Intro (acoustic)
eb|-----------------------------------------------------------|
Bb|-----------------------------------------------------------|
Gb|------------------------5---5------------------------------|
Db|---------7---7----------7---7----8--8--8--8--7--5----7-----|
Ab|-----5---8---8------8------------8--8--8--8--7--5----7-----|
Db|---7-------------10--------------8--8--8--8--7--5----7-----|

eb|------------------------------------------------------|
Bb|------------------------------------------------------|
Gb|------------------------5---5-------------------------|
Db|---------7---7----------7---7----8--8--8--8--7--------|
Ab|-----5---8---8------8------------8--8--8--8--7--------|
Db|---0-------------10--------------8--8--8--8--7--------|