Shinedown - Beyond The Sun Chords & Tabs

 

Shinedown Chords & Tabs

Version: 1 Type: Tab 0 ratings
1 star 2 stars 3 stars 4 stars 5 stars
comments

Beyond The Sun Tab

   
-------------------------------------------------------------------------------
			Beyond The Sun - Shinedown
-------------------------------------------------------------------------------
Tabbed by: Sean_Mac	
Email: stm5017@psu.edu

Tuning: (Db Ab Db Gb Bb eb)

Dropped D, 1/2 step down


Intro (Acoustic)
e|-----0-------0------0--0---0--0--|-----0-------0------0--0---0-------------|
B|-----3-------5------0--0---0--0--|-----3-------5------0--0---0-------------|
G|-----2-------5------7--7---7--7--|-----2-------5------7--7---7-------------|
D|---0-0-----3-3------8--8---5--5--|---0-0-----3-3------8--8---5-------------|
A|-0---0---0---0------8--8---5--5--|-0---0---0---0------8--8---5-------------|
E|-----0-------0------8--8---5--5--|-----0-------0------8--8---5-------------|

Verse (Acoustic)
								  Distorted
e|--0--0--|--0--0--|        |--0--0--|--0--0--|--0--0--|--0---0--|-----------|
B|--3--5--|--0--0--|        |--0--0--|--3--3--|--0--0--|--0---0--|-----------|
G|--2--5--|--7--7--|   4x   |--7--10-|--2--2--|--7--10-|--12--10-|-5-5-5-5-5-|
D|--0--3--|--8--8--|        |--5--7--|--0--0--|--5--7--|--10--8--|-3-3-3-3-3-|
A|--0--0--|--8--8--|        |--5--7--|--0--0--|--5--7--|--10--8--|-3-3-3-3-3-|
E|--0--0--|--8--8--|        |--5--7--|--0--0--|--5--7--|--10--8--|-3-3-3-3-3-|


(Distorted Guitar)
Pre-Chorus        Chorus                     1.'''''''''''''' 2.''''''''''''''
e|--------------||-0-----|---------|--0-----|---------------| |--------------|
B|--------------||-3-----|---------|--3-----|---------------| |--------------|
G|--------------||-2--5--|--10--7--|--2--5--|--10--7-7-1010-| |--10----------|
D|--------------||-0--3--|--8---5--|--0--3--|--8---5-5-8-8--| |--8-----------|
A|--3--0--------||-0--3--|--8---5--|--0--3--|--8---5-5-8-8--| |--8-----------|
E|-------5--3-2-||-0--3--|--8---5--|--0--3--|--8---5-5-8-8--| |--8-----------|


Verse 

Chorus 

Bridge

e|-0--0--x-x----x-x----x-x-----|-0--0--x-x----x-x----x-x----x-x--------------|
B|-3--3--x-x----x-x----x-x-----|-3--3--x-x----x-x----x-x----x-x--------------|
G|-2--2--x-x-5--x-x-5--x-x-7-7-|-2--2--x-x-5--x-x-5--x-x-7--x-x--10--5--3----|
D|-0--0--x-x-3--x-x-2--x-x-5-5-|-0--0--x-x-3--x-x-2--x-x-5--x-x--8---3--3----|
A|-0--0--x-x-3--x-x-2--x-x-5-5-|-0--0--x-x-3--x-x-2--x-x-5--x-x--8---3--3----|
E|-0--0--x-x-3--x-x-2--x-x-5-5-|-0--0--x-x-3--x-x-2--x-x-5--x-x--8---3--3----|
[ Tab from: http://www.guitartabs.cc/tabs/s/shinedown/beyond_the_sun_tab.html ]
e|-0--0--x-x----x-x----x-x-----|-0--0--x-x----x-x----x-x----x-x--------------|
B|-3--3--x-x----x-x----x-x-----|-3--3--x-x----x-x----x-x----x-x--------------|
G|-2--2--x-x-5--x-x-5--x-x-7-7-|-2--2--x-x-5--x-x-5--x-x-7--x-x--10--10-10---|
D|-0--0--x-x-3--x-x-2--x-x-5-5-|-0--0--x-x-3--x-x-2--x-x-5--x-x--8---8--8----|
A|-0--0--x-x-3--x-x-2--x-x-5-5-|-0--0--x-x-3--x-x-2--x-x-5--x-x--8---8--8----|
E|-0--0--x-x-3--x-x-2--x-x-5-5-|-0--0--x-x-3--x-x-2--x-x-5--x-x--8---8--8----|

Solo
I didn't write it note for note, but this is the general gist of it.  At the 
end of the second time through on the <88810--> play the run...

e|---------------------------------------------------------------------------|
B|-----13-13b15r13-13b15r13-....---------------------------------------------|
G|--14------------------------------12-9b10r9-9b10r9--9b10r9-....------------|
D|-------------------------------15------------------------------------------|
A|---------------------------------------------------------------------------|
E|---------------------------------------------------------------------------|

e|----------------------------------------------|----------------------------|
B|----13-13b15r13-13b15r13-....-----------------|----------13----13/15--|----|
G|-14----------------------------12-9b10r10-----|-12-14-12----14-------------|
D|-----------------------------15---------------|------15----------------|---|
A|----------------------------------------------|----------------------------|
E|----------------------------------------------|----------------------------|

Interlude 

Guitar 1(verse)

Guitar 2 (clean)                    
e|---------------------------------|
B|---------------------------------|
G|--9b10-9b10-12--9b10r9-9b10r9-9--|
D|---------------------------------|
A|---------------------------------|
E|---------------------------------|

Pre-Chorus (distorted)
e|------------------------------------------|--------------|
B|------------------------------------------|--------------|
G|-101010107-7-7-7-5-5-5-5-5-5-5-5-5--------|--------------|
D|-8-8-8-8-5-5-5-5-3-3-3-3-3-3-3-3-2--------|--------------|
A|-8-8-8-8-5-5-5-5-3-3-3-3-3-3-3-3-2--------|--3--0--------|
E|-8-8-8-8-5-5-5-5-3-3-3-3-3-3-3-3-2--------|-------5--3-2-|

Chorus

Bridge once ending w/

e|-----------|
B|-----------|
G|----10-----|
D|----8------|  Let Ring...
A|----8------|
E|----8------|

| b  bend
| r  release (bend)
| /  slide up
| \  slide down
| h  hammer-on
| p  pull-off
| ~  vibrato
| +  harmonic
| x  Mute note
===============================================================================
Comments