Shinedown - Begin Again Chords & Tabs

 

Begin Again Chords & Tabs

Shinedown Chords & Tabs

Version: 2 Type: Tab

Begin Again Tab

   
============================================================================
Title: *Begin Again*
Artist: Shinedown
Album: Us and Them
============================================================================
Track: -10-
============================================================================
Label: Atlantic Records
Tablatured by Asa Gaston
============================================================================
Tuning: Open C ( C-G-C-F-A-D ){nevermind the string names}
============================================================================

INTRO

Eb:---9----9-------------------------------------------------------\
Bb:-----10---10----------------------------------------------------\
Gb:----------------------------------------------------------------\
Db:---------------0--0h8--0--8-8--0--0h8--0--8-8--0--0h8--0--8-8---\
Ab:---------------0--0h8--0--8-8--0--0h8--0--8-8--0--0h8--0--8-8---\
Db:---------------0--0h8--0--8-8--0--0h8--0--8-8--0--0h8--0--8-8---\

Eb:----------------------------------------------------------------\
Bb:----------------------------------------------------------------\
Gb:----------------------------------------------------------------\
Db:---3-3-3--5--1-1---0-0--8--0--8-8---0-0--8--0--8-8---0-0--8--0--8-8---\
Ab:---3-3-3--5--1-1---0-0--8--0--8-8---0-0--8--0--8-8---0-0--8--0--8-8---\
Db:---3-3-3--5--1-1---0-0--8--0--8-8---0-0--8--0--8-8---0-0--8--0--8-8---\

Eb:--------------------------------------------------------------------\
Bb:--------------------------------------------------------------------\
Gb:--------------------------------------------------------------------\
Db:---10--10--8--8---0-0--8--0--8-8---0-0--8--0--8-8--0-0--8--0--8-8---\
Ab:---10--10--8--8---0-0--8--0--8-8---0-0--8--0--8-8--0-0--8--0--8-8---\
Db:---10--10--8--8---0-0--8--0--8-8---0-0--8--0--8-8--0-0--8--0--8-8---\

Eb:----------------------\
Bb:----------------------\
Gb:----------------------\
Db:---3-3-3--5--1-1--0---\
Ab:---3-3-3--5--1-1--0---\
Db:---3-3-3--5--1-1--0---\

PRE-VERSE

Eb:-----------------------------------------------------\
Bb:-----------------------------------------------------\
Gb:-----------------------------------------------------\
Db:--------7-------------7-------------7------------7---\
Ab:-----0----0---0-----5---5---5-----5---5---5----5-----\
Db:---0--------0-----0-------0-----8-------8----5-------\

VERSE

Eb:---------------------------------------------------------\
Bb:---------------------------------------------------------\
Gb:---------------------------------------------------------\
Db:--------7-------------7-------------7------------7-------\  
Ab:-----0----0---0-----5---5---5-----5---5---5----5---5---5-\
Db:---0--------0-----0-------0-----8-------8----5-------5---\

Eb:---------------------------------------------------------\
Bb:---------------------------------------------------------\
Gb:---------------------------------------------------------\
Db:--------7-------------7-------------7------------7-------\  
Ab:-----0----0---0-----5---5---5-----5---5---5----5---5---5-\
Db:---0--------0-----0-------0-----8-------8----5-------5---\

Eb:---------------------------------------------------------\
Bb:---------------------------------------------------------\
Gb:---------------------------------------------------------\
Db:--------7-------------7-------------7------------7-------\  
Ab:-----0----0---0-----5---5---5-----5---5---5----5---5---5-\
Db:---0--------0-----0-------0-----8-------8----5-------5---\

Eb:---------------------------------------------------------\
Bb:---------------------------------------------------------\
Gb:---------------------------------------------------------\
Db:--------7-------------7-------------7------------7-------\  
Ab:-----0----0---0-----5---5---5-----5---5---5----5---5---5-\
Db:---0--------0-----0-------0-----8-------8----5-------5---\

PRE-CHORUS

Eb:---------------------------------------\
Bb:---------------------------------------\
Gb:---------------------------------------\
Db:---17-17--16--10---10--17-17--16--10---\
Ab:---17-17--16--10---10--17-17--16--10---\
Db:---17-17--16--10---10--17-17--16--10---\

Eb:------------------------------------------------------\
Bb:------------------------------------------------------\
Gb:------------------------------------------------------\
Db:---0-0---------0-0----------8-8----10-10--10-10--10---\
Ab:---0-0--7b-----0-0--7b------8-8----10-10--10-10--10---\
Db:---0-0-----10--0-0-----10---8-8----10-10--10-10--10---\

CHORUS

Eb:-------------------------------------------------------------------\
Bb:-------------------------------------------------------------------\
Gb:-------------------------------------------------------------------\
Db:---0-0--8--0--8-8---0-0--8--0--8-8---0-0--8--0--8-8---10-10--8-8---\
Ab:---0-0--8--0--8-8---0-0--8--0--8-8---0-0--8--0--8-8---10-10--8-8---\
Db:---0-0--8--0--8-8---0-0--8--0--8-8---0-0--8--0--8-8---10-10--8-8---\

Eb:----------------------------------------------------------------------\
Bb:----------------------------------------------------------------------\
Gb:----------------------------------------------------------------------\
Db:---0-0--8--0--8-8---0-0--8--0--8-8---0-0--8--0--8-8---3-3-3--5--1-1---\
Ab:---0-0--8--0--8-8---0-0--8--0--8-8---0-0--8--0--8-8---3-3-3--5--1-1---\
Db:---0-0--8--0--8-8---0-0--8--0--8-8---0-0--8--0--8-8---3-3-3--5--1-1---\

VERSE II

Eb:---------------------------------------------------------\
Bb:---------------------------------------------------------\
Gb:---------------------------------------------------------\
Db:--------7-------------7-------------7------------7-------\  
Ab:-----0----0---0-----5---5---5-----5---5---5----5---5---5-\
Db:---0--------0-----0-------0-----8-------8----5-------5---\

Eb:---------------------------------------------------------\
Bb:---------------------------------------------------------\
Gb:---------------------------------------------------------\
Db:--------7-------------7-------------7------------7-------\  
Ab:-----0----0---0-----5---5---5-----5---5---5----5---5---5-\
Db:---0--------0-----0-------0-----8-------8----5-------5---\
[ Tab from: http://www.guitartabs.cc/tabs/s/shinedown/begin_again_tab_ver_2.html ]
Eb:---------------------------------------------------------\
Bb:---------------------------------------------------------\
Gb:---------------------------------------------------------\
Db:--------7-------------7-------------7------------7-------\  
Ab:-----0----0---0-----5---5---5-----5---5---5----5---5---5-\
Db:---0--------0-----0-------0-----8-------8----5-------5---\

Eb:---------------------------------------------------------\
Bb:---------------------------------------------------------\
Gb:---------------------------------------------------------\
Db:--------7-------------7-------------7------------7-------\  
Ab:-----0----0---0-----5---5---5-----5---5---5----5---5---5-\
Db:---0--------0-----0-------0-----8-------8----5-------5---\

PRE-CHORUS

Eb:---------------------------------------\
Bb:---------------------------------------\
Gb:---------------------------------------\
Db:---17-17--16--10---10--17-17--16--10---\
Ab:---17-17--16--10---10--17-17--16--10---\
Db:---17-17--16--10---10--17-17--16--10---\

Eb:------------------------------------------------------\
Bb:------------------------------------------------------\
Gb:------------------------------------------------------\
Db:---0-0---------0-0----------8-8----10-10--10-10--10---\
Ab:---0-0--7b-----0-0--7b------8-8----10-10--10-10--10---\
Db:---0-0-----10--0-0-----10---8-8----10-10--10-10--10---\

CHORUS

Eb:-------------------------------------------------------------------\
Bb:-------------------------------------------------------------------\
Gb:-------------------------------------------------------------------\
Db:---0-0--8--0--8-8---0-0--8--0--8-8---0-0--8--0--8-8---10-10--8-8---\
Ab:---0-0--8--0--8-8---0-0--8--0--8-8---0-0--8--0--8-8---10-10--8-8---\
Db:---0-0--8--0--8-8---0-0--8--0--8-8---0-0--8--0--8-8---10-10--8-8---\

Eb:----------------------------------------------------------------------\
Bb:----------------------------------------------------------------------\
Gb:----------------------------------------------------------------------\
Db:---0-0--8--0--8-8---0-0--8--0--8-8---0-0--8--0--8-8---3-3-3--5--1-1---\
Ab:---0-0--8--0--8-8---0-0--8--0--8-8---0-0--8--0--8-8---3-3-3--5--1-1---\
Db:---0-0--8--0--8-8---0-0--8--0--8-8---0-0--8--0--8-8---3-3-3--5--1-1---\

BRIDGE

Eb:-------------------------------------------------------------------\
Bb:-------------------------------------------------------------------\
Gb:-------------------------------------------------------------------\
Db:-------------------------------------------------------------------\
Ab:-------------------------------------------------------------------\
Db:---0h3p0h3--0h3p0h3--0h3p0h3--0h3p0h3--0h3p0h3--0h3p0h3--0h3p0h3---\

Eb:-----------------\
Bb:-----------------\
Gb:-----------------\
Db:---5--7--8--10---\
Ab:---5--7--8--10---\
Db:---5--7--8--10---\

Eb:-------------------------------------------------------------------\
Bb:-------------------------------------------------------------------\
Gb:-------------------------------------------------------------------\
Db:-------------------------------------------------------------------\
Ab:-------------------------------------------------------------------\
Db:---0h3p0h3--0h3p0h3--0h3p0h3--0h3p0h3--0h3p0h3--0h3p0h3--0h3p0h3---\

Eb:-----------------\
Bb:-----------------\
Gb:-----------------\
Db:---5--7--8--10---\
Ab:---5--7--8--10---\
Db:---5--7--8--10---\

Eb:-------------------------------------------------------------------\
Bb:-------------------------------------------------------------------\
Gb:-------------------------------------------------------------------\
Db:-------------------------------------------------------------------\
Ab:-------------------------------------------------------------------\
Db:---0h3p0h3--0h3p0h3--0h3p0h3--0h3p0h3--0h3p0h3--0h3p0h3--0h3p0h3---\

Eb:---------------------------------------------\
Bb:---------------------------------------------\
Gb:---------------------------------------------\
Db:---5--7--8--10---5--7--8--10---5--7--8--10---\
Ab:---5--7--8--10---5--7--8--10---5--7--8--10---\
Db:---5--7--8--10---5--7--8--10---5--7--8--10---\

ENDING CHORUS

Eb:-------------------------------------------------------------------\
Bb:-------------------------------------------------------------------\
Gb:-------------------------------------------------------------------\
Db:---0-0--8--0--8-8---0-0--8--0--8-8---0-0--8--0--8-8---10-10--8-8---\
Ab:---0-0--8--0--8-8---0-0--8--0--8-8---0-0--8--0--8-8---10-10--8-8---\
Db:---0-0--8--0--8-8---0-0--8--0--8-8---0-0--8--0--8-8---10-10--8-8---\

Eb:----------------------------------------------------------------------\
Bb:----------------------------------------------------------------------\
Gb:----------------------------------------------------------------------\
Db:---0-0--8--0--8-8---0-0--8--0--8-8---0-0--8--0--8-8---3-3-3--5--1-1---\
Ab:---0-0--8--0--8-8---0-0--8--0--8-8---0-0--8--0--8-8---3-3-3--5--1-1---\
Db:---0-0--8--0--8-8---0-0--8--0--8-8---0-0--8--0--8-8---3-3-3--5--1-1---\

Eb:-------------------------------------------------------------------\
Bb:-------------------------------------------------------------------\
Gb:-------------------------------------------------------------------\
Db:---0-0--8--0--8-8---0-0--8--0--8-8---0-0--8--0--8-8---10-10--8-8---\
Ab:---0-0--8--0--8-8---0-0--8--0--8-8---0-0--8--0--8-8---10-10--8-8---\
Db:---0-0--8--0--8-8---0-0--8--0--8-8---0-0--8--0--8-8---10-10--8-8---\

Eb:----------------------------------------------------------------------\
Bb:----------------------------------------------------------------------\
Gb:----------------------------------------------------------------------\
Db:---0-0--8--0--8-8---0-0--8--0--8-8---0-0--8--0--8-8---3-3-3--5--1-1---\
Ab:---0-0--8--0--8-8---0-0--8--0--8-8---0-0--8--0--8-8---3-3-3--5--1-1---\
Db:---0-0--8--0--8-8---0-0--8--0--8-8---0-0--8--0--8-8---3-3-3--5--1-1---\




NOTE: Fantastic song, great song. I don't know what's better:
      Listening to the song or Playing the song. I think this
      song, Fly from the Inside and 45 are the best Shinedown
      songs introwise. Awesome intro. Once again, another hit
      from their new record 'Us and Them'. I'm telling you,
      that is one album you won't regret buying. So play it
      up, this tab is correct in every manner ( at least to me ).
      If you find anything needing correction, post it in a comment.Thanx
      Please rate and ENJOY!!!, I mean  Well... ...ENJOY!!!

                                      -Asa