Shinedown - Begin Again Chords & Tabs

 

Begin Again Chords & Tabs

Shinedown Chords & Tabs

Version: 1 Type: Tab

Begin Again Tab

   
~= let ring
/=slide down

This is a song from Shinedown's new Album "Us and Them" and it totally KICKS
@#! It's only the intro because I Haven't Figured the whole thing out yet. Any
comments, questions or corrections feel free to email me.
thirdchancefromfailure@hotmail.com.

Gtr. I (C G C F A D)
Gtr. 2 (C G C F A D)


Gtr.1 0:10

D|--12-13------|
A|--10-13------|
F|-------------|   5x
C|-------------|
G|-------------|
C|-------------|

Gtr.2 0:06-0:13

D|----------------------------------------------------------------|
A|----------------------------------------------------------------|
F|----------------------------------------------------------------|
C|----------------------------------------3-3-3--5--1-1-----------|
G|----------------------------------------3-3-3--5--1-1-----------|
C|-0-0-8-0-8-8--0-0-8-0-8-8--0-0-8-0-8-8--3-3-3--5--1-1-----------|

Gtr.1&2 0:13-0:21
[ Tab from: http://www.guitartabs.cc/tabs/s/shinedown/begin_again_tab.html ]
D|----------------------------------------------------------------|
A|----------------------------------------------------------------|
F|----------------------------------------------------------------|
C|-0-0-8-0-8-8--0-0-8-0-8-8--0-0-8-0-8-8--10-10-10-10--8-8-8-8----|
G|-0-0-8-0-8-8--0-0-8-0-8-8--0-0-8-0-8-8--10-10-10-10--8-8-8-8----|
C|-0-0-8-0-8-8--0-0-8-0-8-8--0-0-8-0-8-8--10-10-10-10--8-8-8-8----|

Gtr. 2 0:21-0:29

D|----------------------------------------------------------------|
A|----------------------------------------------------------------|
F|----------------------------------------------------------------|
C|-0-0-8-0-8-8--0-0-8-0-8-8--0-0-8-0-8-8--3-3-3--5--1-1~----------|
G|-0-0-8-0-8-8--0-0-8-0-8-8--0-0-8-0-8-8--3-3-3--5--1-1~----------|
C|-0-0-8-0-8-8--0-0-8-0-8-8--0-0-8-0-8-8--3-3-3--5--1-1~----------|

Gtr.1 0:21-0:29

D|----------------------------------------------------------------|
A|----------------------------------------------------------------|
F|--7/14--15--17~-------------------------------------------------|
C|----------------------------------------------------------------|
G|----------------------------------------------------------------|
C|----------------------------------------------------------------|

Thats all I have so far I'll add more when I figure it out. Anyone
wants to contribute let me know. Enjoy.