Shinedown - Atmosphere Chords & Tabs

 

Atmosphere Chords & Tabs

Shinedown Chords & Tabs

Version: 3 Type: Tab

Atmosphere Tab

intro

e|---------------------------------------------------------|
b|---------------------------------------------------------|
g|-----------1---------------------------------------------|
d|----1--3-3----3--1---------------------------------------|
a|--1-----------------3------------------------------------|
e|1--------------------------------------------------------|


verse
[ Tab from: http://www.guitartabs.cc/tabs/s/shinedown/atmosphere_tab_ver_3.html ]
|---------------------------------------------------------------|
|---------------------------------------------------------------|
|----------1----------------------------------------------------|
|----1--3-----3-------------------------------------------------|
|--1------------------------------------------------------------|
|1--------------------------------------------------------------|