Shinedown - All I Ever Wanted Chords & Tabs

 

All I Ever Wanted Chords & Tabs

Shinedown Chords & Tabs

Version: 1 Type: Tab 0 ratings
1 star 2 stars 3 stars 4 stars 5 stars
comments

All I Ever Wanted Tab

   
Band- Shinedown
Song- All I Ever Wanted

Tuning: Drop D (D A D G B E)



intro/verse
E|--------------------------------3^--0h1p0h1p0------------------------------||
B|----------------------------------------------2-2h3------------------------||
G|---------------------------------------------------------------------------||
D|-----2---3-2-----2-----2-----2---------------------------------------------||
A|---0---0-----0-----3-----3-------------------------------------------------||
D|-0-------------3-----3-----3-----------------------------------------------||
[ Tab from: http://www.guitartabs.cc/tabs/s/shinedown/all_i_ever_wanted_tab.html ]
chorus
E|--------------------------------------------------------||
B|--------------------------------------------------------||
G|--------------7-7-7-7-7-7-7-7-7-7-7/4-4-4-4-4/5-5-5-5-5-||
D|-3-3-33333--0-x-x-x-x-x-x-x-x-x-x-x-x-x-x-x-x-x-x-x-x-x-||
A|-3-3-33333--0-5-5-5-5-5-5-5-5-5-5-5/2-2-2-2-2/3-3-3-3-3-||
D|-3-3-33333--0-------------------------------------------||
       *****
E|--------------------------------------------------------||
B|--------------------------------------------------------||
G|---7-7-7-7-7-7-7-7-7-7-7/12-12/7-7-7--------------------||
D|-0-x-x-x-x-x-x-x-x-x-x-x--x--x-x-x-x-00-0-3-3-3-3-3-3---||
A|-0-5-5-5-5-5-5-5-5-5-5-5/10-10/5-5-5-00-0-3-3-3-3-3-3---||
D|-0-----------------------------------00-0-3-3-3-3-3-3---||
                                       **
bridge/solo(tremelo picking)
E|---------------------------------------------------------------------------||
B|---------------3333333333333333--88888888888888-10101010--11111111111111111||
G|---------------------------------------------------------------------------||
D|-5-3-2-3-2--0--------------------------------------------------------------||
A|-5-3-2-3-2--0--------------------------------------------------------------||
D|-5-3-2-3-2--0--------------------------------------------------------------||

E|---------------------------------------------------------------------------||
B|-13131313131313131313131313131313--15151515151515151515-19p151515151515----||
G|---------------------------------------------------------------------------||
D|---------------------------------------------------------------------------||
A|---------------------------------------------------------------------------||
D|---------------------------------------------------------------------------||

E|---------------------------------------------------------------------------||
B|-19p1515151515151515-19p1515151515151515-----------------------------------||
G|---------------------------------------------------------------------------||
D|---------------------------------------------------------------------------||
A|---------------------------------------------------------------------------||
D|---------------------------------------------------------------------------||

rythm during solo
E|---------------------------------------------------------------------------||
B|---------------------------------------------------------------------------||
G|---------------------------------------------------------------------------||
D|-0---5-5-5-5-5--8-8/3-3-3-3--5-3-2-3-2--5-5-5-5-5-8-8-8-8-8/10-10-repeat---||
A|-0---5-5-5-5-5--8-8/3-3-3-3--5-3-2-3-2--5-5-5-5-5-8-8-8-8-8/10-10----------||
D|-0---5-5-5-5-5--8-8/3-3-3-3--5-3-2-3-2--5-5-5-5-5-8-8-8-8-8/10-10----------||
Comments