Shinedown - 4 Chords & Tabs

 

4 Chords & Tabs

Shinedown Chords & Tabs

Version: 1 Type: Tab 3 ratings
1 star 2 stars 3 stars 4 stars 5 stars
comments

4 Tab

artist:shinedown

song:45

tabbed by: Jeremy (gohan8138530@aol.com)



The tab that was on here was upside down to me so I knew that it had to be that way for other people, so I fixed it. I hope it is easier for ya now.

intro:

e------------------------------------------------------
B------------------------------------------------------
G-------0-------2----------------0-----0-----0-----0---
D-----2-------0----------5-----4-----4-----4-----4-----
A----------------------5-----3-----3-----3-----3-------
E--0--------2--------3---------------------------------


the verses are sort of like the intro with a few changes. alternate between these two riffs.
[ Tab from: http://www.guitartabs.cc/tabs/s/shinedown/4_tab.html ]
e-----------------------------------------------------------------------
B----------------------------------------------------------------3------
G-------0-------2-------------0-h2p-0------------0-----0-----0----------
D-----2-------0----------5-------------4p-0----4-----4-----4--------5-4-
A----------------------5--------------------3-----3-----3---------------
E--0--------2--------3--------------------------------------------------




e--------------------------------------------------------------
B------------------------------------------------------3-------
G-------0-------2----------------------0-----0-----0-----------
D-----2-------0----------5-----5-----4-----4-----4--------5-4--
A----------------------5-----5----3-----3-----3----------------
E--0--------2--------3-----------------------------------------




the bridge is played with these chords : Am  ,  Em. (strum 12x once then Am again then this series of palm mutes)

   
e----------------------------------------
B----------------------------------------
G----------------------------------------
D---5--5--5--5--5--5---4--4--4--4--4--4--
A---5--5--5--5--5--5---4--4--4--4--4--4--
E---3--3--3--3--3--3---2--2--2--2--2--2--






chorus

e-------------------------------------
B-------------------------------------
G------------7----5-------------7----5
D------2-----7----5-------2-----7----5
A------2-----5----3-------2-----5----3
E--3-2-0--------------3-2-0-----------





There, that is better. Have fun.
Comments