Shinedown - 45 Chords & Tabs

 

45 Chords & Tabs

Shinedown Chords & Tabs

Version: 1 Type: Tab 1 rating
1 star 2 stars 3 stars 4 stars 5 stars
comments

45 Tab

   
Shinedown - 45  from leave a whisper

What a great song.  this is how i play it.  it's the whole song.
while i wont guarantee that it is 100% correct i'm sure it's pretty damn close.
i tried to show timing, but i wont make any promises so listen to the song to be sure.

standard tuning

intro:

   Em       D/F#     G5      C5
e----------------------------------------------------
B----------------------------------------------------
G-------0-------2--------0-------0-----0-----0-----0-
D-----2-------0--------0-------0-----0-----0-----0---
A----------------------------3-----3-----3-----3-----
E--0--------2--------3-------------------------------
x1

verse:

   Em       D/F#     G5                     C5
e----------------------------------------------------------------------
B----------------------------------------------------------------3-----
G-------0-------2--------0-----0h2p0-------------0-----0-----0-----0---
D-----2-------0--------0---------------4p0-----0-----0-----0---------0-
A-------------------------------------------3-----3-----3--------------
E--0--------2--------3-------------------------------------------------



   Em       D/F#     G5           C5
e--------------------------------------------------------------
B------------------------------------------------------3-------
G-------0-------2--------0-----0-------0-----0-----0------0----
D-----2-------0--------0-----0-------0-----0-----0----------0--
A---------------------------------3-----3-----3----------------
E--0--------2--------3-----------------------------------------




   Em       D/F#     G5                     C5
e----------------------------------------------------------------------
B----------------------------------------------------------------3-----
G-------0-------2--------0-----0h2p0-------------0-----0-----0-----0---
D-----2-------0--------0---------------4p0-----0-----0-----0---------0-
A-------------------------------------------3-----3-----3--------------
E--0--------2--------3-------------------------------------------------



Verse Part 2:

    C5                            D5
e--------------------------------------------------------------
B--------------------------------------------------------------
G---5-5-5--5-5-5-5--5-5-5--5-5-5--7-7-7--7-7-7--7-7-7--7-7-7-7-
D---5-5-5--5-5-5-5--5-5-5--5-5-5--7-7-7--7-7-7--7-7-7--7-7-7-7-
A---3-3-3--3-3-3-3--3-3-3--3-3-3--5-5-5--5-5-5--5-5-5--5-5-5-5-
E--------------------------------------------------------------
    C5
e--------------------------------
B--------------------------------
G---5-5-5--5-5-5--5-5-5--5-5-5---
D---5-5-5--5-5-5--5-5-5--5-5-5---
A---3-3-3--3-3-3--3-3-3--3-3-3---
E--------------------------------


w/distortion

    G5                 F#5
e----------------------------------------
B----------------------------------------
G----------------------------------------
D---5--5--5--5--5--5---4--4--4--4--------
A---5--5--5--5--5--5---4--4--4--4--------
E---3--3--3--3--3--3---2--2--2--2--------



chorus: w/distortion

       Em    D5   C5      Em    D5   C5   C5
e-------------------------------------------
B-------------------------------------------
G------------7----5-------------7----5----5-   x2
D------2-----7----5-------2-----7----5----5-
A------2-----5----3-------2-----5----3----3-
E--3-2-0--------------3-2-0-----------------


Verse:

   Em       D/F#     G5      C5
e-----------------------------------------------------
B-----------------------------------------------3-----
G-------0-------2--------0-------0-----0-----0----0---
D-----2-------0--------0-------0-----0-----0--------0-
A----------------------------3-----3-----3------------
E--0--------2--------3--------------------------------
x1

verse:
[ Tab from: http://www.guitartabs.cc/tabs/s/shinedown/45_tab.html ]
   Em       D/F#     G5                     C5
e----------------------------------------------------------------------
B----------------------------------------------------------------3-----
G-------0-------2--------0-----0h2p0-------------0-----0-----0-----0---
D-----2-------0--------0---------------4p0-----0-----0-----0---------0-
A-------------------------------------------3-----3-----3--------------
E--0--------2--------3-------------------------------------------------



   Em       D/F#     G5
e--------------------------------------------------------------
B------------------------------------------------------3-------
G-------0-------2--------0-----0-------0-----0-----0------0----
D-----2-------0--------0-----0-------0-----0-----0----------0--
A---------------------------------3-----3-----3----------------
E--0--------2--------3-----------------------------------------




   Em       D/F#     G5                     C5
e----------------------------------------------------------------------
B----------------------------------------------------------------3-----
G-------0-------2--------0-----0h2p0-------------0-----0-----0-----0---
D-----2-------0--------0---------------4p0-----0-----0-----0---------0-
A-------------------------------------------3-----3-----3--------------
E--0--------2--------3-------------------------------------------------


Verse Part 2:

    C5                            D5
e--------------------------------------------------------------
B--------------------------------------------------------------
G---5-5-5--5-5-5-5--5-5-5--5-5-5--7-7-7--7-7-7--7-7-7--7-7-7-7-
D---5-5-5--5-5-5-5--5-5-5--5-5-5--7-7-7--7-7-7--7-7-7--7-7-7-7-
A---3-3-3--3-3-3-3--3-3-3--3-3-3--5-5-5--5-5-5--5-5-5--5-5-5-5-
E---------------------------------0----------------------------
  
    C5
e--------------------------------
B--------------------------------
G---5-5-5--5-5-5--5-5-5--5-5-5---
D---5-5-5--5-5-5--5-5-5--5-5-5---
A---3-3-3--3-3-3--3-3-3--3-3-3---
E---0----------------------------


w/distortion

    G5                 F#5
e----------------------------------------
B----------------------------------------
G----------------------------------------
D---5--5--5--5--5--5---4-4-4-4-4-4-4-----
A---5--5--5--5--5--5---4-4-4-4-4-4-4-----
E---3--3--3--3--3--3---2-2-2-2-2-2-2-----




chorus: w/distortion

       Em    D5   C5      Em    D5   C5   C5
e-------------------------------------------
B-------------------------------------------
G------------7----5-------------7----5----5-   
D------2-----7----5-------2-----7----5----5-
A------2-----5----3-------2-----5----3----3-
E--3-2-0--------------3-2-0-----------------



w/distortion

    C5     G5 Em   C5     G5 Em G5  C5                 G5 Em
e-----------------------------------------------------------
B-----------------------------------------------------------
G---5-5-5----------5-5-5------------5-5-5-------------------
D---5-5-5---5-2----5-5-5---5-2------5-5-5-x-x-x-x-x-x-x-5-2-
A---3-3-3---5-2----3-3-3---5-2--5-5-3-3-3-x-x-x-x-x-x-x-5-2-
E-----------3-0------------3-0--3-3-------x-x-x-x-x-x-x-3-0-


w/distortion

   Em       D/F#     G5          Em       D/F#   C5
e------------------------------------------------------
B------------------------------------------------------
G-------0-------2---------------------0-------2--5-5-5-
D-----2-------0------------5b6------2-------0----5-5-5-
A----------------------5-------------------------3-3-3-
E--0--------2--------3-----------0--------2------------


       Em    D5   C5      Em    D5   C5   C5
e-------------------------------------------
B-------------------------------------------
G------------7----5-------------7----5----5-   
D------2-----7----5-------2-----7----5----5-
A------2-----5----3-------2-----5----3----3-
E--3-2-0------------------0-----------------


       Em7      D5       C5       
e------------------------------
B--------3--------8-------6---
G--------0------7-7-----5-5-5-   x3
D------2-2-2----7-7-----5-5-5-
A------2-2-2----5-5-----3-3-3-
E--3-2-0-0-0-------------------

end with this

       Em7      D5       C5       
e------------------------
B--------3--------8------
G--------0------7-7-----5  
D------2-2-2----7-7-----5
A------2-2-2----5-5-----3
E--3-2-0-0-0-------------

Comments