Shinedown - 45 Chords & Tabs

 

45 Chords & Tabs

Shinedown Chords & Tabs

Version: 1 Type: Bass Tab 0 ratings
1 star 2 stars 3 stars 4 stars 5 stars
comments

45 Bass Tab

standard tuning

 verse
|------------------------------------------------|
|------------------------------------------------|
|---------------------3------3------3------3-----|
|-0-----2-----3----------------------------------|

pre-chorus
|-----------------------------------|
|-------5/7---5-4-------------------|
|------------------7----------75---|
|-5-------------------------------5-|

|---------------------------------------|
|---------------------------------------|
|---------------------------------------|
|-5---5-5-------3-3-3-3-3-3-2-2-2-23-2-|

[ Tab from: http://www.guitartabs.cc/tabs/s/shinedown/45_btab.html ]
chorus
|---------------------------------------------|
|---------------------------------------------|
|-----------5---------3--------3p2-3----------|
|-0------3--------------------------------3-2-|

|---------------------------------------------|
|---------------------------------------------|
|-----------5---------3-----------------------|
|-0-----3/5---------------------5-5-5-5-5-5---|


bridge

|--------------------------------------------------------------|
|--------------------------------------------------------------|
|-3-2-----333--------3-2------333--------------------3--2|
|---------------------------------------------0-3-2-0-2-0------|
after this, play verse riff


End song on an A.



Verse
Pre-chorus
Chorus
Verse
Pre-chorus
Chorus
Bridge
Verse
Chorus



This sonds about right but it sonds relly good so have fun with it!!!......
Comments