Shihad - The General Electric Chords & Tabs

 

The General Electric Chords & Tabs

Shihad Chords & Tabs

Version: 1 Type: Tab 0 ratings
1 star 2 stars 3 stars 4 stars 5 stars
comments

The General Electric Tab

Song : The General Electric
Artist : Shihad
Album : The General Electric

Sean Beardmore

Tuning: Standard

Intro:

e  ---------------------------------------------
b  ---------------------------------------------
g  ---------------------------------------------
d  ---------------------------------------------
a  --/12-~12---then feedback--------------------
E  ---------------------------------------------

"You Better Run As Fast.." ( ! with wah-wah)
[ Tab from: http://www.guitartabs.cc/tabs/s/shihad/the_general_electric_tab.html ]
e  ---------------------------------------------
b  ---------------------------------------------
g  ---------------------------------------------
d  --------------------------!-!-!-!------------
a  --/9-9-9-9-9--8-8-8-8-8---5-5-5-5------------
E  ---------------------------------------------

"Passengers Just Passing.." (Man this bit Rocks!!)

e  ---------------------------------------------
b  ---------------------------------------------
g  --7--/10--10--7------------------------------
d  --7--/10--10--7------------------------------
a  --5--/8---8---5------------------------------
E  ---------------------------------------------

"You Holding Everything Inside.."

e  ---------------------------------------------
b  ---------------------------------------------
g  --5--3---------------------------------------
d  --5--3--3------let chords ring---------------
a  --3--1--3------------------------------------
E  --------1------------------------------------

This song just makes me want to crack up the amps and rock!!
Comments