Shihad - Pacifier Chords & Tabs

 

Pacifier Chords & Tabs

Shihad Chords & Tabs

Version: 1 Type: Bass Tab 0 ratings
1 star 2 stars 3 stars 4 stars 5 stars
comments

Pacifier Bass Tab

Song: Pacifier
Artist: Shihad
Album: The General Electric
Tabbed by: Ward Sims (wardsims@hotmail.com)

This was my first ever tab so it might be wrong.

Main Riff

G|--------------------------------------------
D|--------------------------------------------
A|-----5-0-5-5---5-0-5-5-5-(3 times)----------
E|---------------------------------3-3-0-3-3--

Chorus
[ Tab from: http://www.guitartabs.cc/tabs/s/shihad/pacifier_btab.html ]
G|--------------------------------------------
D|--------------------------------------------
A|--------------------------------------------
E|-----5-5-5-5-7-7-7-7-3-3-3-3---------------- (Repeat)

G|--------------------------------------------
D|--------------------------------------------
A|--------------------------------------------
E|-----12-12-12-12-14-14-14-14-3-3-3-3-------- (Repeat)

That's it, the order is:
Main Riff (3 times)
Chorus
Main Riff (3 times)
Chorus

You should be able to work out the rest.

Comments