Shihad - Big Future Chords & Tabs

 

Big Future Chords & Tabs

Shihad Chords & Tabs

Version: 1 Type: Tab 0 ratings
1 star 2 stars 3 stars 4 stars 5 stars
comments

Big Future Tab

   
-------------------------------------------------------------------------------
			     BIG FUTURE - Shihad
-------------------------------------------------------------------------------
Tabbed by:Wade
Email:noobedout@hotmail.com

| /  slide up
| \  slide down
| h  hammer-on
| p  pull-off
| ~  vibrato
| +  harmonic
| x  Mute note

Tuning:

tuned one whole step down

intro

Jon plays this bit:

d|-----------------------------------|
C|-----------------------------------|
A|---------------3-------------------|
F|-3-22222222222-3-222222222222------|
G|-3-22222222222-1-222222222222------|
D|-1-00000000000---000000000000------|

Verse:
Jon plays above and phil plays the bit below. Verse starts when its like gonna sit and 
nothing?.....................

d|---------------------------------------------------------------------------|
C|---------------------------------------------------------------------------|
A|---------------------------------3-----------------------------------------|
F|-3-------------------------------3-----------------------------------------|
G|-3-------------------------------1-----------------------------------------|
D|-1---3-3-4-4-5-5-6-6-5-5-4-4-3-3-------3-3-4-4-5-5-6-6-5-5-4-4-3-3---------|
       + + + + + + + + + + + + + +       + + + + + + + + + + + + + +

Chorus

Jon

d|-------------------------------------------------------------------|
C|-------------------------------------------------------------------|
A|-------------------------------------------------------------------|
F|--2-22222222222-5-55555555555-7-7777777777777777777777-------------|
G|--2-22222222222-5-55555555555-7-7777777777777777777777-------------|
D|--0-00000000000-3-33333333333-5-5555555555555555555555-------------|

Phil
[ Tab from: http://www.guitartabs.cc/tabs/s/shihad/big_future_tab.html ]
d|------------------------------------------------------------------------|
C|------------------------------------------------------------------------|
A|------------------------------------------------------------------------|
F|-7-77777777777-10-1010101010101010101010--12-121212121212121212---------|
G|-7-77777777777-10-1010101010101010101010--12-121212121212121212---etc---|
D|-5-55555555555-8--8-8-8-8-8-8-8-8-8-8-8---10-101010101010101010---------|

Now comes second verse. play same as first verse 2 times then play this at end of each 
riff. you will get it

d|--------------------------------------------|
C|--------------------------------------------|
A|---------------------------------3----------|
F|-3-------------------------------3----------|
G|-3-------------------------------1----------|
D|-1------------------------------------------|


Chorus

Bridge:

I havnt quite worked out end bit of bridge  yet so sorry dont mark me down for it please 
am trying to get it and will prob post it soon.

d|---------------------------------------------------------|
C|---------------------------------------------------------|
A|-------------3-------------------------3-------------3---|
F|-3-22222222--3-222222222--3-222222222--3-222222-3-22-3---|x2
G|-3-22222222--1-222222222--3-222222222--1-222222-3-22-1---|
D|-1-00000000----000000000--1-000000000----000000-1-00-----|

For the third verse bit. phil plays his harmonics like first verse and jon plays below 
the end of second verse

d|----------------------------------|
C|----------------------------------|
A|----------------------3-----------|
F|-3--------------------3-----------|
G|-3--------------------1-----------|
D|-1--------------------------------|

Chorus


Outro
e|---------------------|
B|---------------------|
G|---------------------|
D|-3-22222222222-23----|
A|-3-22222222222-23----|
E|-1-00000000000-01----|


| /  slide up
| \  slide down
| h  hammer-on
| p  pull-off
| ~  vibrato
| +  harmonic
| x  Mute note
===============================================================================
Comments