Shihad - All The Young Fascists Chords & Tabs

 

All The Young Fascists Chords & Tabs

Shihad Chords & Tabs

Version: 1 Type: Tab 0 ratings
1 star 2 stars 3 stars 4 stars 5 stars
comments

All The Young Fascists Tab

   
----------------------------------------------------------------------------
			     ALL THE YOUNG FASCISTS - Shihad
----------------------------------------------------------------------------Tabbed by: stratoqueen
Email: tereza_likes_rock@hotmail.com

Tuning: drop d (DADGBE)

Intro (main riff)
Guitar 1:
e|-----------------------|----------------------|
B|-----------------------|----------------------|
G|-----------------------|----------------------|
D|-----------------------|----------------------|
A|-0--0--13p0--13--0--0--|-13x--13p12x--13x--0--|
D|-----------------------|----------------------|     
                   -PM-


e|-------------------|-------------------|
B|-------------------|-------------------|
G|-------------------|-------------------|
D|-------------------|-------------------|
A|-0--12x--13--0--0--|-13x--13p12x--13--0|
D|-------------------|-------------------|
               -PM- 

Guitar 2: Octaves
[ Tab from: http://www.guitartabs.cc/tabs/s/shihad/all_the_young_fascists_tab.html ]
  C         Bb        G
e|-10---------8----|--------------|
B|--x---------x----|--10----------|
G|--7---------5----|---x----------|
D|-----------------|---7----------|
A|-----------------|--------------|
E|-----------------|--------------|


Chorus

  F5add9    Dsus4   A5       F5add9    Dsus4   G5 A5
e|------------------------------------------------------------------------|
B|------------------------------------------------------------------------|
G|------------------------------------------------------------------------|
D|-5--------5--------7--------5--------5--------5-7---5-7---5-7---5-7---5-|
A|-3--------0--------7--------3--------0--------5-7---5-7---5-7---5-7---5-|
D|-3--------0--------7--------3--------0--------5-7---5-7---5-7---5-7---5-|


Bridge:


e|--------------------|------------------------|
B|--------------------|------------------------|
G|-x-x-9--9--9x--x--x-|-9/10--9--9--9--7----7--|
D|-x-x-7--7--7x--x--x-|-7/8---7--7--7--5----5--|  Repeat twice
A|--------------------|------------------------|
D|--------------------|------------------------|


| /  slide up
| \  slide down
| h  hammer-on
| p  pull-off
| ~  vibrato
| +  harmonic
| x  Mute note

so thats about it...

============================================================================
Comments