Shifty - Slide Along Side Chords & Tabs

 

Slide Along Side Chords & Tabs

Shifty Chords & Tabs

Version: 1 Type: Tab 0 ratings
1 star 2 stars 3 stars 4 stars 5 stars
comments

Slide Along Side Tab

Artist: Shifty
Title: Slide along side
Tabbed by: stringping
Tuning: Standard (EADGBE)

3 Guitars

These are all the riffs needed to play the song.

Chorus (0:00),(1:00),(1:58)

Gtr 1. Riff A
e|------------------------------------------------------|
B|------------------------------------------------------|
G|---------9----7----(0)--------9----7------------------|
D|-7-------9----7-----5-7-------9----7------------------|
A|-7-------7----5-----5-7-------7----5------------------|
E|-5------------------3s5-------------------------------|
[ Tab from: http://www.guitartabs.cc/tabs/s/shifty/slide_along_side_tab.html ]
Gtr 2. Riff B
e|---10p9------10p9----12-------------------------------|
B|--------10--------10----------------------------------|
G|-----------9------------------------------------------|
D|------------------------------------------------------|
A|------------------------------------------------------|
E|------------------------------------------------------|

1st Verse (0:21)

Gtr. 1 play Riff A

2nd Verse (1:20)

Gtr. 1 play Riff A

Gtr. 2 Riff C
e|----------------------------------------------------|
B|-10-X-10-9-----------------10-X-10-9---7------------|
G|-----------9--7----------------------9--------------|
D|----------------------------------------------------|
A|----------------------------------------------------|
E|----------------------------------------------------|

Chorus (2:27)

Gtr. 3 enters here with Riff C


Bridge/Breakdown (2:36)

DJ scratches while Gtr. 2 plays Riff B

Last Chorus (2:45)

Gtr. 1 play Riff A
Gtr. 2 play Riff B
Gtr. 3 play Riff C

Fadeout at (3:35)


Enjoy!!
Comments