Shepherd Kenny Wayne - In Too Deep Chords & Tabs

 

In Too Deep Chords & Tabs

Shepherd Kenny Wayne Chords & Tabs

Version: 1 Type: Tab 0 ratings
1 star 2 stars 3 stars 4 stars 5 stars
comments

In Too Deep Tab

   
Kenny Wayne Shepard - In To Deep 
--------------------------------


T=Thumb on Low 'E' sixth string.
*=Bend the note slightly sharp,i.e blue note bend.


Main Riff 1
-----------

For this main riff the open 'A' fifth string is used as a
constant droning pedal tone.

      *                       *
E]------------------------------------8-88-]
B]------------------------------------8-88-]
G]----5-------7\8/7-5---------5-------x-xx-]
D]5-7---7-5-7---------7-5-5-7---7-5-7-7-77-]
A]0-0-0-0-0-0---------0-0-0-0-0-0-0-0------]
E]5-5-------------------5-5-5--------------]
  T T                   T T T
 

(Play these following octave riff's in a constant down up
picking movement ^v^v...etc.)
  
'C' OCTAVE 
          

  D]  10  
  A]  X     = PLAY THIS 16 TIME'S, THEN A# OCTAVE RIFF,
  E]  8
      T

'A#' OCTAVE


  D]  6
  A]  X     = PLAY THIS 6 TIME'S THEN BACK TO MAIN RIFF.     
  E]  8
      T

Riff 2
------
[ Tab from: http://www.guitartabs.cc/tabs/s/shepherd_kenny_wayne/in_too_deep_tab.html ]
E]---------------------------8-88-]
B]---------------------------8-88-]
G]---------------------------x-xx-]
D]----5-7-----5-7------------7-77-]
A]--------------------3-----------]
E]3-5-----3-5-----3-5---5-55------]


Bridge Part
-----------

'E' OCTAVE

   G]  9      
   D]  X   = x20  followed by,
   A]  7
   E]  X

'D' OCTAVE

   G]  7
   D]  X   = x12 followed by,
   A]  5
   E]  X

'C5'

   G]  5
   D]  5   = X7 followed by, 
   A]  3
   E]  X

'A5#'

   G]  3
   D]  3   =x7 then go back and play the main riff
   A]  1       through twice more then the solo starts.
   E]  X


Solo section backing
--------------------

All you do for the solo backing is
play the MAIN RIFF in the 8th'C' 
position, then again twice in the 3rd'G' position.
There is one slight change for the end of the 'G' section.
Instead of playing the funky little 3note chord,
you walk up from 'G' to 'G#' then play RIFF 2
through twice more and thats about it.
From what you have here you should be able to work out the
rest of the song.

Stevie Ray & Jimi R.I.P.

any comments good or bad mail me at
simonh71@hotmail.com

Comments