Shellac - Prayer To God Chords & Tabs

 

Prayer To God Chords & Tabs

Shellac Chords & Tabs

Version: 1 Type: Bass Tab 0 ratings
1 star 2 stars 3 stars 4 stars 5 stars
comments

Prayer To God Bass Tab

the main part is like this
G:------------------------------------------------------------------|
D:------------------------------------------------------------------|
A:------------------------------------------------------------------|
E:---0000-3333-5555-8888-12121212-15-15-15-15-13-13-15-15-13-13-12--|
[ Tab from: http://www.guitartabs.cc/tabs/s/shellac/prayer_to_god_btab.html ]
and the chords you are are these:
G:------9-------9--------9----------10--|
D:------9-------7-------10---------10---|
A:------7-------7--------7----------7---|
E:--------------------------------------|

G:------9-------9--------9----------9--|
D:------9-------7-------10----------9--|
A:------7-------7--------7----------7--|
E:-------------------------------------|
Comments